Oops, an error
Loading. Please wait.

Hate To See You Go Tab

version 1
version 1

Whole song

Interactive

6,330 views 6 this week
7 commentsread comments
1 2 3 4 5
worth learning
x 7
add to favorites
launch autoscroll
font size
0
reset
how to read this tab
guitar tuner
Tab Pro tools
  • play this tab
  • loop segment
  • change instrument
  • show fretboard
  • metronome
×
Best way to learn
"Hate To See You Go"
Autoscroll
slow
fast
+/-
esc
set tempo
stop
Contributor
Difficulty
Tuning
intermediate
D# G# C# F# A# D#
Hate To See You Go by The Color Fred

Verse 1:
eb|-------10------10------10-10-10--------10----10-------10--10--10----| 
Ab|-------8-------8-------8--8--8---------8-----8--------8---8---8-----|
Gb|-----------------11-------------11--------------11---------------11-| 
Db|-10-10---10-10------0-0---0--0---------------------9-9--9---9-------|
Ab|--------------------------------------------------------------------|
Eb|------------------------------------0-0---0-0-----------------------|

eb|-------10------10------10-10-10--------10----10-------10--10--10----| 
Ab|-------8-------8-------8--8--8---------8-----8--------8---8---8-----|
Gb|-----------------11-------------11--------------11---------------11-| 
Db|-10-10---10-10------0-0---0--0---------------------9-9--9---9-------|
Ab|--------------------------------------------------------------------|
Eb|------------------------------------0-0---0-0-----------------------|

eb|-------10------10------10-10-10--------10----10-------10--10--10----| 
Ab|-------8-------8-------8--8--8---------8-----8--------8---8---8-----|
Gb|-----------------11-------------11--------------11---------------11-| 
Db|-10-10---10-10------0-0---0--0---------------------9-9--9---9-------|
Ab|--------------------------------------------------------------------|
Eb|------------------------------------0-0---0-0-----------------------|
Many are the hours I lie awake trash the room in vain

eb|-------10------10------10-10-10--------10----10-------10--10--10----| 
Ab|-------8-------8-------8--8--8---------8-----8--------8---8---8-----|
Gb|-----------------11-------------11--------------11---------------11-| 
Db|-10-10---10-10------0-0---0--0---------------------9-9--9---9-------|
Ab|--------------------------------------------------------------------|
Eb|------------------------------------0-0---0-0-----------------------|
try to waste the energy I'll never spend on you

eb|-------10------10------10-10-10--------10----10-------10--10--10----| 
Ab|-------8-------8-------8--8--8---------8-----8--------8---8---8-----|
Gb|-----------------11-------------11--------------11---------------11-| 
Db|-10-10---10-10------0-0---0--0---------------------9-9--9---9-------|
Ab|--------------------------------------------------------------------|
Eb|------------------------------------0-0---0-0-----------------------|
lying on this bed, never touch not right now

eb|-------10------10------10-10-10--------10----10-------10--10--10----| 
Ab|-------8-------8-------8--8--8---------8-----8--------8---8---8-----|
Gb|-----------------11-------------11--------------11---------------11-| 
Db|-10-10---10-10------0-0---0--0---------------------9-9--9---9-------|
Ab|--------------------------------------------------------------------|
Eb|------------------------------------0-0---0-0-----------------------|
if I'm over this by morning thats the future I can't see

Chorus:
eb|-----------------------------------|--------------------------------------| 
Ab|-----------------------------------|--------------------------------------|
Gb|-5-5-555----------7-7-777----------|-5-5-555-----------7777777777777777---| 
Db|-5-5-555-5-55-555-7-7-777-2-22-2222|-5-5-555--5-55-555-7777777777777777---|
Ab|-3-3-333-5-55-555-5-5-555-2-22-2222|-3-3-333--5-55-555-5555555555555555---|
Eb|---------3-33-333---------0-00-0000|----------3-33-333--------------------|
Well I'm gonna hate to see you go
but I'm impossible I know
Yeah I'm gonna hate to see you go
but I know you're just waiting

eb|-------10------10------10-10-10--------10----10-------10--10--10----| 
Ab|-------8-------8-------8--8--8---------8-----8--------8---8---8-----|
Gb|-----------------11-------------11--------------11---------------11-| 
Db|-10-10---10-10------0-0---0--0---------------------9-9--9---9-------|
Ab|--------------------------------------------------------------------|
Eb|------------------------------------0-0---0-0-----------------------|
ohhoh ohhoh ohhoh

eb|-------10------10------10-10-10--------10----10-----10-| 
Ab|-------8-------8-------8--8--8---------8-----8------8--|
Gb|-----------------11-------------11--------------11--11-| 
Db|-10-10---10-10------0-0---0--0----------------------0--|
Ab|----------------------------------------------------0--|
Eb|------------------------------------0-0---0-0-------0--|
ohhoh ohhoh

Verse 2:
eb|-------10------10------10-10-10--------10----10-------10--10--10----| 
Ab|-------8-------8-------8--8--8---------8-----8--------8---8---8-----|
Gb|-----------------11-------------11--------------11---------------11-| 
Db|-10-10---10-10------0-0---0--0---------------------9-9--9---9-------|
Ab|--------------------------------------------------------------------|
Eb|------------------------------------0-0---0-0-----------------------|
when your young you dedcide what you can and cannot take

eb|-------10------10------10-10-10--------10----10-------10--10--10----| 
Ab|-------8-------8-------8--8--8---------8-----8--------8---8---8-----|
Gb|-----------------11-------------11--------------11---------------11-| 
Db|-10-10---10-10------0-0---0--0---------------------9-9--9---9-------|
Ab|--------------------------------------------------------------------|
Eb|------------------------------------0-0---0-0-----------------------|
promises that you made, that wish you wouldn't brake

eb|-------10------10------10-10-10--------10----10-------10--10--10----| 
Ab|-------8-------8-------8--8--8---------8-----8--------8---8---8-----|
Gb|-----------------11-------------11--------------11---------------11-| 
Db|-10-10---10-10------0-0---0--0---------------------9-9--9---9-------|
Ab|--------------------------------------------------------------------|
Eb|------------------------------------0-0---0-0-----------------------|
this was over long before we met

eb|-------10------10------10-10-10--------10----10-------10--10--10----| 
Ab|-------8-------8-------8--8--8---------8-----8--------8---8---8-----|
Gb|-----------------11-------------11--------------11---------------11-| 
Db|-10-10---10-10------0-0---0--0---------------------9-9--9---9-------|
Ab|--------------------------------------------------------------------|
Eb|------------------------------------0-0---0-0-----------------------|
this was over long before we met

Chorus:
eb|-----------------------------------|--------------------------------------| 
Ab|-----------------------------------|--------------------------------------|
Gb|-5-5-555----------7-7-777----------|-5-5-555-----------7777777777777777---| 
Db|-5-5-555-5-55-555-7-7-777-2-22-2222|-5-5-555--5-55-555-7777777777777777---|
Ab|-3-3-333-5-55-555-5-5-555-2-22-2222|-3-3-333--5-55-555-5555555555555555---|
Eb|---------3-33-333---------0-00-0000|----------3-33-333--------------------|
Well I'm gonna hate to see you go
but I'm impossible I know
Yeah I'm gonna hate to see you go
but I know you're just waiting

Bridge:
eb|----------------------|
Ab|----------------------|
Gb|-5-------------7------|
Db|-5-x16--5------7-x16--|
Ab|-3------5-x16--5------|
Eb|--------3-------------|
ohhoh ohhoh ohhoh
see you are waiting (ohhoh ohhoh)

eb|----------------------|
Ab|----------------------|
Gb|-5-------------7------|
Db|-5-x16--5------7-x16--|
Ab|-3------5-x16--5------|
Eb|--------3-------------|
this was over long before we met (ohhoh ohhoh ohhoh)
see you are waiting (ohhoh ohhoh ohhohh)

eb|-------------------------------------------------------------------| 
Ab|-------------------------------------------------------------------|
Gb|-5-5-555-5-5-555-----------------7-7-777-7-7-777-----------------7-| 
Db|-5-5-555-5-5-555-5-5-555-5-5-555-7-7-777-7-7-777-2-2-222-2-2-222-7-|
Ab|-3-3-333-3-3-333-5-5-555-5-5-555-5-5-555-5-5-555-2-2-222-2-2-222-5-|
Eb|-----------------3-3-333-3-3-333-----------------0-0-000-0-0-000---|
this was over long before we met (ohhoh ohhoh)
see you are waiting
see you are waiting now

Chorus:
eb|-----------------------------------|----------------------| 
Ab|-----------------------------------|----------------------|
Gb|-5-5-555----------7-7-777----------|-5-5-555-----------7--| 
Db|-5-5-555-5-55-555-7-7-777-2-22-2222|-5-5-555--5-55-555-7--|
Ab|-3-3-333-5-55-555-5-5-555-2-22-2222|-3-3-333--5-55-555-5--|
Eb|---------3-33-333---------0-00-0000|----------3-33-333----|
well I'm gonna hate to see you go
but I'm impossible I know
I'm gonna hate to see you go but you will

Verse 3:
eb|-------10------10------10-10-10--------10----10-------10--10--10----| 
Ab|-------8-------8-------8--8--8---------8-----8--------8---8---8-----|
Gb|-----------------11-------------11--------------11---------------11-| 
Db|-10-10---10-10------0-0---0--0---------------------9-9--9---9-------|
Ab|--------------------------------------------------------------------|
Eb|------------------------------------0-0---0-0-----------------------|
ohh you will

eb|-------10------10------10-10-10--------10----10-------10--10--10----| 
Ab|-------8-------8-------8--8--8---------8-----8--------8---8---8-----|
Gb|-----------------11-------------11--------------11---------------11-| 
Db|-10-10---10-10------0-0---0--0---------------------9-9--9---9-------|
Ab|--------------------------------------------------------------------|
Eb|------------------------------------0-0---0-0-----------------------|

eb|-------10------10------10-10-10--------10----10-------10--10--10----| 
Ab|-------8-------8-------8--8--8---------8-----8--------8---8---8-----|
Gb|-----------------11-------------11--------------11---------------11-| 
Db|-10-10---10-10------0-0---0--0---------------------9-9--9---9-------|
Ab|--------------------------------------------------------------------|
Eb|------------------------------------0-0---0-0-----------------------|
many are the hours I lie awake (many are the hours I lie awake)

eb|-------10------10------10-10-10--------10----10-----10-| 
Ab|-------8-------8-------8--8--8---------8-----8------8--|
Gb|-----------------11-------------11--------------11--11-| 
Db|-10-10---10-10------0-0---0--0----------------------0--|
Ab|----------------------------------------------------0--|
Eb|------------------------------------0-0---0-0-------0--|
many are the hours I lie awake

Chorus (revised):
eb|-------------------------------------| 
Ab|-------------------------------------|
Gb|-5-5-555----------7-7-777------------| 
Db|-5-5-555-5-55-555-7-7-777-2-22-2222--|
Ab|-3-3-333-5-55-555-5-5-555-2-22-2222--|
Eb|---------3-33-333---------0-00-0000--|
I'm gonna hate to see you go
ohhohh ohhohh

eb|-------------------------------------| 
Ab|-------------------------------------|
Gb|-5-5-555----------7-7-777------------| 
Db|-5-5-555-5-55-555-7-7-777-2-22-2222--|
Ab|-3-3-333-5-55-555-5-5-555-2-22-2222--|
Eb|---------3-33-333---------0-00-0000--|
I'm gonna hate to see you go
ohhohh ohhohh

eb|-------------------------------------| 
Ab|-------------------------------------|
Gb|-5-5-555----------7-7-777------------| 
Db|-5-5-555-5-55-555-7-7-777-2-22-2222--|
Ab|-3-3-333-5-55-555-5-5-555-2-22-2222--|
Eb|---------3-33-333---------0-00-0000--|
this was over long before we met

eb|-------------------------------------| 
Ab|-------------------------------------|
Gb|-5-5-555----------7-7-777------------| 
Db|-5-5-555-5-55-555-7-7-777-2-22-2222--|
Ab|-3-3-333-5-55-555-5-5-555-2-22-2222--|
Eb|---------3-33-333---------0-00-0000--|
this was over long before we met (ohhoh)

eb|-------------------------------------| 
Ab|-------------------------------------|
Gb|-5-5-555----------7-7-777------------| 
Db|-5-5-555-5-55-555-7-7-777-2-22-2222--|
Ab|-3-3-333-5-55-555-5-5-555-2-22-2222--|
Eb|---------3-33-333---------0-00-0000--|
this was over long before we met

eb|-------------------------------------| 
Ab|-------------------------------------|
Gb|-5-5-555----------7-7-777------------| 
Db|-5-5-555-5-55-555-7-7-777-2-22-2222--|
Ab|-3-3-333-5-55-555-5-5-555-2-22-2222--|
Eb|---------3-33-333---------0-00-0000--|
we met
we met

(keep playing until fades out)
eb|-------------------------------------| 
Ab|-------------------------------------|
Gb|-5-5-555----------7-7-777------------| 
Db|-5-5-555-5-55-555-7-7-777-2-22-2222--|
Ab|-3-3-333-5-55-555-5-5-555-2-22-2222--|
Eb|---------3-33-333---------0-00-0000--|
this was over long before we met
comments
print report bad tab
7 comments total. Showing first comments.
0 reply
athsmador wrote on June 18 2008, 12:57 am

you did such a good job





COPYING MINE EXACTALY

0 reply
athsmador wrote on June 18 2008, 01:03 am

seriously, who does that

0 reply
crosscanadianmd wrote on July 7 2008, 07:35 pm

dude who cares it still sucks..

I want to post or [tab]
guest
You may want to rate the tab now too:
select rating
Please do not post tabs as comments. Select "correction" instead!