Oops, an error
Loading. Please wait.

I Didnt See Tab

667 views 1 this week
1 commentread comment
1 2 3 4 5
please rate
add to favorites
launch autoscroll
font size
0
reset
how to read this tab
guitar tuner
Autoscroll
slow
fast
+/-
esc
set tempo
stop
Help us to improve Ultimate-Guitar.com Take our survey!
×
Author
this is not the whole this is all you need(except the solo) so hope you will fiqure it 
i will fix it when i have the time, this is just the basic.

Tabbed by: Atticus44
Email: eytor44@gmail.com

Tuning: Standard


Intro       (0:07-0:20)
              Guitar 1
E|-------------------------------------|
B|-------------------------------------|
G|--66666666---------------------------|x8
D|--xxxxxxxx---------------------------|
A|--44444444---------------------------|
E|-------------------------------------|
            (0:14-0:20)
              Guitar 2
E|-------------------------------------|
B|-------------------------------------|
G|-11-11-1011-10-11-11-10-11-10--------|x2
D|-x--x--x-x--x--x--x--x--x--x---------|
A|-9--9--9-9--9--9--9--9--9--9---------|
E|-------------------------------------|

Verse        Guitar 1
E|-------------------------------------|
B|-------------------------------------|
G|--66666666/1111111111111111----------|x2
D|--xxxxxxxx/x-x-x-x-x-x-x-x-----------|
A|--44444444/9-9-9-9-9-9-9-9-----------|
E|-------------------------------------|

E|-------------------------------------|
B|-------------------------------------|
G|--66666666/88888888------------------|
D|--xxxxxxxx/xxxxxxxx------------------|
A|--44444444/66666666------------------|
E|-------------------------------------|


E|-------------------------------------|
B|-------------------------------------|
G|--66666666/1111111111111111----------|
D|--xxxxxxxx/x-x-x-x-x-x-x-x-----------|
A|--44444444/9-9-9-9-9-9-9-9-----------|
E|-------------------------------------|


Chorus     Guitar 1 & 2
E|-------------------------------------|
B|-------------------------------------|
G|-6666-4444---------------------------|
D|-6666-4444-44444444------------------|
A|-4444-2222-44444444------------------|
E|-----------22222222------------------|


Intro
Verse
Chorus
Intro
verse
Chorus
Solo
Chorus
Suggest correction
Give kudos to tab author, rate the tab!
1 2 3 4 5
comments
print report bad tab
1 comment total.
0 reply
athsmador 279 wrote on April 23 2008, 10:28 pm

sounds close, somethings a little off tho

this song reminds me of i am fred astaire soo much

guest
You may want to rate the tab now too:
select rating
Wanna post a correction for this tab? Suggest correction