Oops, an error
Loading. Please wait.

If I Surrender Tab

version 1
version 1

Intro

Whole song

Interactive

1,453 views 1 this week
no commentswrite comment
1 2 3 4 5
please rate
add to favorites
launch autoscroll
font size
0
reset
how to read this tab
guitar tuner
Tab Pro tools
  • play this tab
  • loop segment
  • change instrument
  • show fretboard
  • metronome
×
Best way to learn
"If I Surrender"
Autoscroll
slow
fast
+/-
esc
set tempo
stop
Contributor
The Color Fred
If I Surrender
tabbed by athsmador
anothervivacarter@yahoo.com

http://www.thecolorfred.com/


So im pretty mad that Fred quit TBS, but if he keeps making songs like this i cant complain

Yeah so this is the first the color fred tab bitchess
October 11,2007

corrections
december 1st
i was playing this song and i thought it should be on the b and g strings, not the e and b

The muting is really harmonics, but idk where they are 
Intro
E|-----|-----------------------------------| 
B|-----|-7p0-4p0--------7p0-4p0-4h5p0------|
G|-----|---------3h4p3----------------3h4--| 
D|-XXX-|-----------------------------------|
A|-XXX-|-----------------------------------|
E|-XXX-|-----------------------------------|    

E|-----------------------------------| 
B|-7p0-4p0--------7p0-4p0-4h5p0------|
G|---------3h4p3----------------3h4--| 
D|-----------------------------------|
A|-----------------------------------|
E|-----------------------------------|  

E|-----------------------------------| 
B|-7p0-4p0--------7p0-4p0-4h5p0------|
G|---------3h4p3----------------3h4--| 
D|-----------------------------------|
A|-----------------------------------|
E|-----------------------------------|  




E|---------------------6h7---------| 
B|-7p0-4p0-------7p0h4-------------|
G|---------3h4p3-------------------| 
D|----------------------------XXX--|
A|----------------------------XXX--|
E|----------------------------XXX--|
        
comments
We did not receive enough feedback on this tab! Please rate:
print report bad tab
1 2 3 4 5
I want to post or [tab]
guest
You may want to rate the tab now too:
select rating
Please do not post tabs as comments. Select "correction" instead!