Oops, an error
Loading. Please wait.

Armchair Theatre Bass Tab

25 views 1 this week
no commentswrite comment
1 2 3 4 5
3 more votes to show rating
add to favorites
launch autoscroll
font size
0
reset
guitar tuner
Autoscroll
slow
fast
+/-
esc
set tempo
stop
Help us to improve Ultimate-Guitar.com Take our survey!
×
Author
Difficulty
novice
Bass Start - 00:07


[Intro]

G|----------------|
D|----------------|
A|----------------|
E|--4----5--------|


G|-----------------|---------------|----------------|---------------|
D|-----8--6----6-8-|----8--6-------|----8--6----6-8-|----8--6-------|
A|-----------8-----|---------------|----------8-----|---------------|
E|--6--------------|-6--------4--5-|-6--------------|-6--------4--5-|


G|-----------------|---------------|----------------|---------------|
D|-----8--6----6-8-|----8--6-------|----8--6----6-8-|----8--6-------|
A|-----------8-----|---------------|----------8-----|---------------|
E|--6--------------|-6--------4--5-|-6--------------|-6--------6--7-|


[Verse 1]

G|----------------|---------------|----------------|---------------|
D|----------------|---------------|----------------|---------------|
A|----------------|---------------|----------------|---------------|
E|-8--------------|----------15-\-|-7--------------|----------15-\-|


G|----------------|---------------|----------------|----------------|
D|----------------|---------------|----------------|----------------|
A|----------------|---------------|----------------|----------------|
E|-6--------------|----------15-\-|-5--------------|------------5-/-|


G|---------------|----------------|----------------|---------------|
D|---------------|----------------|----------------|---------------|
A|---------------|------------10--|----------------|---------------|
E|-8-8--8-8-8--8-|-8-8--8-8-8-----|--7-7--7-7-7--7-|-7-7--7-7-7--8-|


G|---------------|---------------|---------------|---------------|
D|---------------|---------------|---------------|---------------|
A|-6-6--6-6-6--6-|-6-6--6-6-6----|-8-8--8-8-8--8-|-8-8--8-8-8-8\-|
E|---------------|-------------8-|---------------|---------------|


[Chorus]

G|-------------|--------------|--------------|--------------| (x2)
D|-----5p4--5--|------5p4-----|------5p4--5--|------5p4-----|
A|-3-----------|--3-----------|--3-----------|--3-----------|
E|-------------|-----------3--|--------------|-----------3--|


G|-------------|---------------|
D|-----5p4--5--|---------------|
A|-3-----------|--3----3--3--3-|
E|-------------|---------------|


[Interlude]

G|----6--4----4-6-|----6--4-------|----6--4----4-6-|----6--4-------|
D|----------6-----|---------------|----------6-----|---------------|
A|-4--------------|-4--------2--3-|-4--------------|-4--------2--3-|
E|----------------|---------------|----------------|---------------|


[Verse 2]

G|----------------|----------------|----------------|----------------|
D|----------------|----------------|----------------|----------------|
A|-4---4----------|----------------|-3--------------|----------------|
E|----------------|--------------4-|----------------|--------------4-|


G|----------------|----------------|----------------|----------------|
D|----------------|----------------|----------------|----------------|
A|-2---2----------|----------------|----------------|-6/11-----------|
E|----------------|--------------4-|-6--------------|--------12----\-|


G|--------------|--------------|--------------|---------------|
D|--------------|--------------|--------------|---------------|
A|-4-4--4--4----|-4-4--4--4----|-3-3--3--3----|-3-3--3--3--3/-|
E|------------4-|------------4-|------------4-|---------------|


G|---------------|---------------|---------------|--------------|
D|---------------|---------------|---------------|--------------|
A|-7-7--7--7-7---|-7-7--7--7-7---|-9-9--9--9-9---|-9-9--9--9-9\-|
E|-------------9-|-------------9-|-------------9-|--------------|


[Chorus]

G|-------------|--------------|--------------|--------------| (x2)
D|-----6p5--6--|------6p5-----|------6p5--6--|------6p5-----|
A|-4-----------|--4-----------|--4-----------|--4-----------|
E|-------------|-----------4--|--------------|-----------4--|


G|-------------|---------------|
D|-----6p5--6--|---------------|
A|-4-----------|--4----4--4--4-|
E|-------------|---------------|


[Instrumental]
                     +   +   +   +   +   +
G|----------------|--5-------5-|-4---5------|----------------|
D|----------------|------------|---------5--|----------------|
A|-5--------------|------5-----|------------|--------r-------|
E|----------------|------------|------------|----------------|



G|-------------|----------------|-------------|----------------|
D|------4---7--|----------------|------5---8--|----------------|
A|--5----------|--------r-------|--6----------|--------r-------|
E|-------------|----------------|-------------|----------------|


G|-------------|----------------|------------|----------------|
D|--5----------|----------------|------------|----------------|
A|------5------|----------------|-----5---6--|--------r-------|
E|----------3--|-----------3--/-|-8----------|----------------|


G|-------------|---------------|-----0-----|-----2----------|
D|--5----------|---------------|-1-------1-|-3--------------|
A|------5------|---------------|-----------|----------------|
E|----------3--|----------5--\-|-----------|----------------|


G|----------2-----------2-|-----0---3-------0---3-|---------2-----------2-|-----0---3-------0---3-|
D|--0---4-------0---4-----|-1-----------1---------|-0---4-------0---4-----|-1-----------1---------|
A|------------------------|-----------------------|-----------------------|-----------------------|
E|------------------------|-----------------------|-----------------------|-----------------------|


[Verse 3]

G|----------------------|----------------------|----------------------|----------------------|
D|----------------------|----------------------|-3-------3-------3----|-5-------5-------5----|
A|-5-------5-------5----|-4-------4-------4----|-----3-------3------3-|-----5-------5------5-|
E|-----5-------5------5-|-----5-------5------5-|----------------------|----------------------|


G|----------------------|----------------------|----------------------|----------------------|
D|----------------------|----------------------|----------------------|-5-------5-------5----|
A|-5-------5-------5----|-6-------6-------6----|-8-------8-------8----|-----5-------5------5-|
E|-----5-------5------5-|-----6-------6------6-|-----8-------8------8-|----------------------|


[Chorus]

G|-------------|--------------|--------------|--------------| (x2)
D|-----7p6--7--|------7p6-----|------7p6--7--|------7p6-----|
A|-5-----------|--5-----------|--5-----------|--5-----------|
E|-------------|-----------5--|--------------|-----------5--|


G|--------------|
D|------7p6--7--|
A|--5-----------|
E|--------------| 


G|----------------|--------------|----------------|--------------|
D|----------------|------7p6--7--|----------------|------7p6--7--|
A|--5----3--6--3--|--5-----------|--5----3--6--3--|--5-----------|
E|----------------|--------------|----------------|--------------|


G|----------------|--------------|----------------|--------------|
D|----------------|------7p6--7--|----------------|--------------|
A|--5----3--6--3--|--5-----------|--5----3--6--3--|--5-----------|
E|----------------|--------------|----------------|--------------|


[Outro] (repeat until the end)

G|-------------------|------------------|------------------|------------------|
D|-----4--7-----4--7-|----5--8-----5--8-|----4--7-----4--7-|----5--8-----5--8-|
A|--5--------5-------|-6--------6-------|-5--------5-------|-6--------6-------|
E|-------------------|------------------|------------------|------------------|



************************

| / : slide up
| \ : slide down
| p : pull-off
| r : rest
| + : harmonic

************************

in regular sequence!
Suggest correction
Give kudos to tab author, rate the tab!
1 2 3 4 5
comments
print report bad tab
guest
You may want to rate the tab now too:
select rating
Wanna post a correction for this tab? Suggest correction