Oops, an error
Loading. Please wait.

We Wont Go Home Bass Tab

16 views 3 this week
no commentswrite comment
1 2 3 4 5
3 more votes to show rating
add to favorites
launch autoscroll
font size
0
reset
guitar tuner
Autoscroll
slow
fast
+/-
esc
set tempo
stop
Help us to improve Ultimate-Guitar.com Take our survey!
×
---------------------------------------------------------------------------------------------
                               We Won't Go Home-The Colourist (Bass Tab)
---------------------------------------------------------------------------------------------

Tabbed by:Mark Donohue
Email:mwdonohue97@gmail.com

Tuning:Standard

_____________________________________________________________________________________________



[Intro] (0:07-0:20)

G|------------------------------------|------------------------------------|
D|------------------------------------|----------------7-7-7-7-7-7-7-7-7/--|
A|--7-7-7-7-7-7-7-9-9-9-9-9-9-9-9-9\--|--5-5-5-5-5-5-5---------------------|
E|------------------------------------|------------------------------------|

G|------------------------------------|------------------------------------|
D|------------------------------------|------------------------------------|
A|--7-7-7-7-7-7-7-9-9-9-9-9-9-9-9-9\--|--5-5-5-5-5-5-5\--------------------|
E|------------------------------------|-----------------5-5-5-5-5-5-5-5-5--|



[Verse 1] (0:20-0:47)

G|------------------------------------|------------------------------------|
D|------------------------------------|----------------7-7-7-7-7-7-7-7-7/--| (Play x3)
A|--7-7-7-7-7-7-7-9-9-9-9-9-9-9-9-9\--|--5-5-5-5-5-5-5---------------------|
E|------------------------------------|------------------------------------|

G|------------------------------------|------------------------------------|
D|------------------------------------|------------------------------------|
A|--7-7-7-7-7-7-7-9-9-9-9-9-9-9-9-9\--|--5-5-5-5-5-5-5\--------------------|
E|------------------------------------|-----------------5-5-5-5-5-5-5------|



[Chorus] (0:47-1:15)

G|------------------------------------|------------------------------------|
D|------------------------------------|------------------------------------|(Play x4)
A|--7-7-7-7-7-7-7-9-9-9-9-9-9-9-9-9\--|--5-5-5-5-5-5-5\--------------------|
E|------------------------------------|-----------------5-5-5-5-5-5-5-5-5--|



[Verse 2] (1:15-1:42)

G|------------------------------------|------------------------------------|
D|------------------------------------|------------------------------------| (Play x2)
A|--7-7-7-7-7-7-7-9-9-9-9-9-9-9-9-9\--|--5-5-5-5-5-5-5\--------------------|
E|------------------------------------|-----------------5-5-5-5-5-5-5-5-5--|

G|------------------------------------|------------------------------------|
D|------------------------------------|----------------7-7-7-7-7-7-7-7-7/--| 
A|--7-7-7-7-7-7-7-9-9-9-9-9-9-9-9-9\--|--5-5-5-5-5-5-5---------------------|
E|------------------------------------|------------------------------------|

G|------------------------------------|------------------------------------|
D|------------------------------------|------------------------------------|
A|--7-7-7-7-7-7-7-9-9-9-9-9-9-9-9-9\--|--5-5-5-5-5-5-5\--------------------|
E|------------------------------------|-----------------5-5-5-5-5-5-5------|



[Chorus] (1:42-1:56)

G|------------------------------------|------------------------------------|
D|------------------------------------|------------------------------------|(Play x2)
A|--7-7-7-7-7-7-7-9-9-9-9-9-9-9-9-9\--|--5-5-5-5-5-5-5\--------------------|
E|------------------------------------|-----------------5-5-5-5-5-5-5-5-5--|



[Outro] (2:02-3:05)

G|------------------------------------|------------------------------------|
D|------------------------------------|------------------------------------|
A|------------------------------------|------------------------------------|
E|--2---------------------------------|------------------------------------|

G|------------------------------------|------------------------------------|
D|------------------------------------|------------------------------------| 
A|-------7-9-7-9----------------------|--2----------------4----------------|
E|--2---------------------------------|------------------------------------|

G|------------------------------------|------------------------------------|
D|------------------------------------|------------------------------------| 
A|-------7-9-7-9----------------12\2--|--2----------------4-4-4-4-4-4-4----|
E|--2---------------------------------|------------------------------------|

G|------------------------------------|------------------------------------|
D|------------------------------------|----------------7-7-7-7-7-7-7-7-7/--|
A|--7-7-7-7-7-7-7-9-9-9-9-9-9-9-9-9\--|--5-5-5-5-5-5-5---------------------|
E|------------------------------------|------------------------------------|

G|------------------------------------|------------------------------------|
D|------------------------------------|------------------------------------|
A|--7-7-7-7-7-7-7-9-9-9-9-9-9-9-9-9\--|--5-5-5-5-5-5-5\--------------------|
E|------------------------------------|-----------------5-5-5-5-5-5-5-5-5--|

G|------------------------------------|------------------------------------|
D|------------------------------------|------------------------------------|
A|------------------------------------|------------------------------------|
E|------------------------------------|------------------------------------|

G|------------------------------------|------------------------------------|
D|------------------------------------|------------------------------------|
A|--7----------------9----------------|--5---------------------------------|
E|------------------------------------|-------------------5----------------|

G|------------------------------------|------------------------------------|
D|------------------------------------|------------------------------------| (Play x2)
A|--7-7-7-7-7-7-7-9-9-9-9-9-9-9-9-9\--|--5-5-5-5-5-5-5\--------------------|
E|------------------------------------|-----------------5-5-5-5-5-5-5-5-5--|


************************************

| /   Slide up
| \   Slide down

************************************
Suggest correction
Give kudos to tab author, rate the tab!
1 2 3 4 5
comments
print report bad tab
guest
You may want to rate the tab now too:
select rating
Wanna post a correction for this tab? Suggest correction