Oops, an error
Loading. Please wait.

Calm After The Storm chords

version 4
version 4

Whole song

Interactive

976 views 3 this week
no commentswrite comment
1 2 3 4 5
2 more votes to show rating
add to favorites
×
Save as Personal and add changes to this tab that will be seen only by you. Learn more ›
×
You can save this tab as Personal to edit and correct it or add notes. All changes will be seen only by you. Learn more »
launch autoscroll
font size
0
reset
transpose
0
reset
simplify chords
display chords
guitar tuner
edit
Autoscroll
slow
fast
+/-
esc
set tempo
stop
About this tab version
Guitar solo, detailed chords, timing of all sorts, section labels, strumming patterns. Was this info helpful? Yes No
Strumming Are these strumming patterns correct? Yes No
Main pattern 112 bpm
1
&
2
&
Listen
Final verse 112 bpm
1
&
2
&
Listen
Alt main pattern 112 bpm
1
&
2
&
Listen
Guitar solo (put a capo on, though)


                                   1
e|---------------------------------|---------------------------------|
B|---------------------------------|---------3-----------------------|
G|-----------------------------0---|-2-/-4-------4-\-2-----------0---|
D|---------------------0---0h2-----|---------------------5---2-------|
A|-----0-------0---0h2-------------|---------------------------------|
E|---------------------------------|---------------------------------|
   1 e + a 2 e + a 3 e + a 4 e + a   1 e + a 2 e + a 3 e + a 4 e + a 

 2                                 3
e|---------------------------------|---------------------------------|
B|-------------------------3-------|-----3-----------3---------------|
G|---------------------0-----------|-0-------0-----------0-----------|
D|-------------0h2-4-----------4---|-------------4-----------4---2---|
A|---------------------------------|---------------------------------|
E|---------------------------------|---------------------------------|
   1 e + a 2 e + a 3 e + a 4 e + a   1 e + a 2 e + a 3 e + a 4 e + a 

 4                                 5
e|---------------------------------|-----------------------------------|
B|---------------------------------|-----------------------------------|
G|---------------------------------|-----------------------------------|
D|-------------0h2-4---5-------5---|-4pb5------(5)-----(5)-r4-------2--|
A|---------------------------------|-----------------------------------|
E|---------------------------------|-----------------------------------|
   1 e + a 2 e + a 3 e + a 4 e + a      1 e + a 2 e + a 3 e + a 4 e + a 
                                     (keep bent on parenthetical notes)

 6
e|---------------------------------|---------------------------------|
B|-------------3-------------------|---------------------------------|
G|-----2-/-4-------2---0-------0---|---------------------------------|
D|-------------------------2-------|-----------------------------7*--|
A|---------------------------------|---------------------------------|
E|---------------------------------|---------------------------------|
   1 e + a 2 e + a 3 e + a 4 e + a   1 e + a 2 e + a 3 e + a 4 e + a 

e|---------------------------------|
B|---------------------------------|
G|---------------------------------|
D|---------------------------------|
A|---------------------------------|
E|---------------------------------|
   1 e + a 2 e + a 3 e + a 4 e + a 

/ and \ = slide
* = natural harmonic
pb = pre-bend
r = release

Chords are based on the STUDIO version, not the Eurovision performance.

CAPO 1


ORDER: I V1 C1 V2 C2 GS V3 FC O


[INTRO]
C/G  G   |   |
C/G  G   |   |


[VERSE 1]
G
Driving in a fast lane,
         Em7
counting mile marker signs
    Cadd9
The empty seat beside me
     G
keeps you on my mind.
G
Living in a heartache
          Em7
was never something I pursued.
Cadd9
I    can't keep on chasing
     G
what I can't be for you.


[CHORUS 1]
G                   Em7
Ooh, skies are black   and blue,
              Cadd9
thinking about     you
            G                   ( Gadd9 G )
here in the calm after the storm


[VERSE 2]
G
Tears on the highway,
  Em7
wa - ter in my eyes
     Cadd9
This rain ain't gonna change us
   G
So what's the use to cry
G
I can say I'm sorry,
     Em7
but I   don't wanna lie;
       Cadd9
I just wan - na know if staying
   G
is better than goodbye


[CHORUS 2] Gsus4 * = Gsus4sus2 = 3x0213 (partly played by an electric guitar)
G                   Em7
Ooh, skies are black   and blue
                  Cadd9   Csus2 Cadd9
I'm thinking about     you
            G                   Gsus4 * G
Here in the calm after the storm
G                        Em7
Ooh, after all that we've   been through
              Cadd9
There ain't nothin' new
            G
Here in the calm after the storm


[GUITAR SOLO]
G | | Em7 | | Cadd9 | | G | Gadd9 |


[VERSE 3]
G
Maybe I can find you
    Em7 
Down   this broken line
   Cadd9
May  -  be you can find me
  G 
I guess we'll know in time


[FINAL CHORUS]
G                   Em7
Ooh, skies are black   and blue
                  Cadd9   Csus2 Cadd9
I'm thinking about     you
            G                   Gsus2 G
here in the calm after the storm
G                        Em7
Ooh, after all that we've   been through
              Cadd9
There ain't nothin' new
            G
here in the calm after the storm
              Cadd9
There ain't nothin' new
            C/G        G
here in the calm after the storm


[OUTRO]
( C/G G )   |   |
  C/G G     | G |
Suggest correction
Creating personal tab
Creating personal tab
You can edit any tab online and save it as your Personal.

You can edit, replace or remove any tab part or add personal notes – all changes will be seen only by you.

Personal tabs can be accessed anytime from any device, even offline.
Learn more »
Give kudos to tab author, rate the tab!
1 2 3 4 5
comments
print report bad tab
guest
You may want to rate the tab now too:
select rating
Wanna post a correction for this tab? Suggest correction