Oops, an error
Loading. Please wait.

I Am The Nightrider Tab

version 1
version 1

Whole song

823 views 1 this week
no commentswrite comment
1 2 3 4 5
please rate
add to favorites
launch autoscroll
font size
0
reset
how to read this tab
guitar tuner
Tab Pro tools
  • play this tab
  • loop segment
  • change instrument
  • show fretboard
  • metronome
×
Best way to learn
"I Am The Nightrider"
Autoscroll
slow
fast
+/-
esc
set tempo
stop
Contributor
Difficulty
Tuning
novice
A E A D F# B
Confession - I Am The Nightrider - Cancer (2009)
Tuning: Drop G# (I can't select a Drop G# setting)
This is my first tab but I don't mind constructive criticism :D

0:00 - 0:25
|------------------------------------------------------------------------|
|-----10-------6~-----10-----------------10--------6~--------------6~----|
|----------7---------------7------------------7----------------7---------|
|------------------------------8~------------------------8---------------|
|------------------------------------------------------------------------|
|------------------------------------------------------------------------|
Intro x2

0:26 - 0:50
|------------------------------------------------------------------------|
|------------------------------------------------------------------------|
|------------------------------------------------------------------------|
|--0-00--0-00--0-00--00-00----0000000---0-00--0-00--0-00--00-00----------|
|--0-00--0-00--0-00--00-00----0000000---0-00--0-00--0-00--00-00----------|
|--0-00--0-00--0-00--00-00----0000000---0-00--0-00--0-00--00-00-1111111--|
   . ..  . ..  . ..  .. ..    .......   . ..  . ..  . ..  .. .. 
|------------------------------------------------------------------------|
|------------------------------------------------------------------------|
|------------------------------------------------------------------------|
|--0-00--0-00--0-00--00-00----0000000---0-00--0-00--0-00--0-00-1~--4~----|
|--0-00--0-00--0-00--00-00----0000000---0-00--0-00--0-00--0-00-1~--4~----|
|--0-00--0-00--0-00--00-00----0000000---0-00--0-00--0-00--0-00-1~--4~----| x2
   . ..  . ..  . ..  .. ..    .......   . ..  . ..  . ..  . ..

^ - On the first time round you let the notes ring a little and then after
    that you stop them.

0:51 - 1:09
|------------------------------------------------------------------------|
|------------------------------------------------------------------------|
|------------------------------------------------------------------------|
|-0~--------------------7/6----1h4h1-------------------------------------|
|-0~-----------0-7h8--0-5/4---01h4h1-0-0-0-1-0-0-00000000----------------|
|-0~-----------0-7h8--0-------01h4h1-0-0-0-1-0-0-00000000----------------|
               .      .       .      .   .   .   ........

|------------------------------------------------------------------------|
|------------------------------------------------------------------------|
|------------------------------------------------------------------------|
|-4h1---------------------7/6---1h4h1------------------------------------|
|-4h1-0-0-0-1-0-0---7h8-0-5/4--01h4h1-0-0-0-1-0-0-00000000---------------|
|-4h1-0-0-0-1-0-0---7h8-0------01h4h1-0-0-0-1-0-0-00000000---------------|
      .   .   .         .      .      .   .   .   ........

|--------------------------------------|
|--------------------------------------|
|--------------------------------------|
|-4h1---------------------7/6----------|
|-4h1-0-0-0-1-0-0-0-7h8-0-5/4----------|
|-4h1-0-0-0-1-0-0-0-7h8-0------3*------|
      .   .   .   .     .

1:10 - 1:22
|----------------------------------------------------------|-------------| 
|----------------------------------------------------------|-------------|
|----------------------------------------------------------|-------------|
|--41------------------------------------------------------|-----0~------| 
|--41-0-0-0-1-0-0-0-000-000-41-0-0-0-1-0-0---00-----0-5/4--|-----0~------|
|--41-0-0-0-1-0-0-0-000-000-41-0-0-0-1-0-0---00-7h8-0------|-0-1-0~------|
      .   .   .   . ..  ...    .   .   .     ..     .        .

^ - If you understand this, with the last bar (if you want to call it that),
    where it's blocked off near the end, play that part the second time
    around. Also, after you've played that part (second time as well) you 
    play the first 3 notes of the intro twice. 

Breakdown 1:28 - 1:40
|------------------------------------------------------------------------|
|------------------------------------------------------------------------|
|------------------------------------------------------------------------|
|--0-00--0-0-00---0-00-0-0-00-0---000-00-0-0-00---0-00-0-0-0-------------|
|--0-00--0-0-00---0-00-0-0-00-0---000-00-0-0-00---0-00-0-0-0-------------|
|--0-00--0-0-00---0-00-0-0-00-0---000-00-0-0-00---0-00-0-0-0-1pb---------|
   . ..  . . ..   . .. . . .. .   ... .. . .. .   . .. . . .

I can't decide whether to play it as: |----| or: |----| after the breakdown.
                                      |-0--|     |-1--|
                                      |-1--|     |-2--|

I can't be bothered to tab out the other part using the two chords listed,
either way though, I think it will sound okay. (Rhythm is pretty easy to do
as it slows down a little).

1:48 - 2:00
|----------------------------------------------------------|-------------| 
|----------------------------------------------------------|-------------|
|----------------------------------------------------------|-------------|
|--41------------------------------------------------------|-------------| 
|--41-0-0-0-1-0-0-0-000-000-41-0-0-0-1-0-0---00-----0-5/4--|-------------|
|--41-0-0-0-1-0-0-0-000-000-41-0-0-0-1-0-0---00-7h8-0------|-0-1---------|
      .   .   .   . ..  ...    .   .   .     ..     .        .

2:01 - 2:06
|------------------| 
|------------------|
|------------------|
|--0~-----1~--4~---| 
|--0~-----1~--4~---|
|--0~-----1~--4~---|

2:07 - 2:32
|------------------------------------------------------------------------|
|------------------------------------------------------------------------|
|------------------------------------------------------------------------|
|--0-00--0-00--0-00--00-00----0000000---0-00--0-00--0-00--00-00----------|
|--0-00--0-00--0-00--00-00----0000000---0-00--0-00--0-00--00-00----------|
|--0-00--0-00--0-00--00-00----0000000---0-00--0-00--0-00--00-00-1111111--|
   . ..  . ..  . ..  .. ..    .......   . ..  . ..  . ..  .. .. 
|------------------------------------------------------------------------|
|------------------------------------------------------------------------|
|------------------------------------------------------------------------|
|--0-00--0-00--0-00--00-00----0000000---0-00--0-00--0-00--0-00-1~--4~----|
|--0-00--0-00--0-00--00-00----0000000---0-00--0-00--0-00--0-00-1~--4~----|
|--0-00--0-00--0-00--00-00----0000000---0-00--0-00--0-00--0-00-1~--4~----| x2
   . ..  . ..  . ..  .. ..    .......   . ..  . ..  . ..  . ..

^ - On the first time round you let the notes ring a little and then after
    that you stop them.

2:32 - 2:53 (Guitar fades out)
|------|
|------|
|------|
|--0~--|
|--0~--|
|--0~--|

The Intro plays again beneath the sound of the guitar playing the open note.
(4x if you play beneath it or 2x if you play when the guitar fades out) 

Key:

. = Palm Mute
* = Harmonic
h = Hammer-ons
pb = Pitch Bend
~ = Ringing note

I hope you found this tab useful and easy to read (as it's my first one) 

Aaron :D
comments
We did not receive enough feedback on this tab! Please rate:
print report bad tab
1 2 3 4 5
I want to post or [tab]
guest
You may want to rate the tab now too:
select rating
Please do not post tabs as comments. Select "correction" instead!