Oops, an error
Loading. Please wait.

Requiem tab

5,120 views 3 this week
2 commentsread comments
1 2 3 4 5
x 5
add to favorites
×
Save as Personal and add changes to this tab that will be seen only by you. Learn more ›
×
You can save this tab as Personal to edit and correct it or add notes. All changes will be seen only by you. Learn more »
launch autoscroll
font size
0
reset
how to read this tab
guitar tuner
edit
Autoscroll
slow
fast
+/-
esc
set tempo
stop
Author
Difficulty
Artist: The Confession
Album: Requiem
Song: Requiem

Chords used:
Em-    [022000]
G-     [320033]
Am-    [002210]
D-     [xxx323]
C-     [x32010]
Asus2- [002200]


Intro violin solo
e|-----------------------------------------------------------------|
B|---5-7-8----/10--8-7---7-8---------------------------------------|
G|-7-------------------7-----5/4---7/9/7-4-5---4-4-----2-4---2-----|
D|-------------------------------------------------5-5---------5-4-| x2
A|-----------------------------------------------------------------|
E|-----------------------------------------------------------------|

e|-----------------------------------------------------------------|
B|-7---4-----------------------------------------------------------|
G|---------4-------------------------------------------------------|
D|-------------7---5---4---2---------------------------------------|
A|-----------------------------------------------------------------|
E|-----------------------------------------------------------------|


Em           D      C        G   Asus2
  we stand together  try to erase
Am           Em                  G    D
  all of the pain that takes his place
Em           D      C               G   Asus2
  we cry out to you  with words and vows
Am           Em                 G    D
  they don't amount to what you went through


C                            Em
  they say the good they die young
                    D        C
they say the wicked live too long
                           Em      D
I hope yer hearin' this in heaven
C                            Em
  now that yer gone i hear a song
               D      C
sung to me ten angels strong
                                   Em      D
it hurts to leave but at least yer free...


First guitar solo (similar to violin solo)
e|-----------------------------------------------------------------|
B|---5-7-8----/10--8-7-7---7-8-------------------------------------|
G|-7---------------------7-----5/4---7/9/7-4-5---4-4-----2-4---2---|
D|---------------------------------------------------5-5---------5-|
A|-----------------------------------------------------------------|
E|-----------------------------------------------------------------|

e|-----------------------------------------------------------------|
B|-7-----5-7-5-----------------------------------------------------|
G|----8------------------------------------------------------------|
D|-----------------------------------------------------------------|
A|-----------------------------------------------------------------|
E|-----------------------------------------------------------------|


Em           D    C             G   Asus2
  stay in my mind  till it's my time
Am            Em              G       D
  and may you be there when I see the light
Em             D      C            G   Asus2
  something we found   on hallowed ground
Am         Em            G      D
  your memory will never be put down...


C                            Em
  they say the good they die young
                    D        C
they say the wicked live too long
                           Em      D
I hope yer hearin' this in heaven
C                            Em
  now that yer gone i hear a song
               D      C
sung to me ten angels strong
                                   Em      C
it hurts to leave but at least yer free...


C       Em
(interlude)
end on a D


Clean soft part in interlude
e|-----10----10--8-7------------12---------------------------------|
B|-7-8---------------7-8--5--------8-------------------------------|
G|-----------------------------------------------------------------|
D|-----------------------------------------------------------------|
A|-----------------------------------------------------------------|
E|-----------------------------------------------------------------|

e|-----10----10--8-10-7----5-7-------------------------------------|
B|-7-8---------------------7-8-------------------------------------|
G|-----------------------------------------------------------------|
D|-----------------------------------------------------------------|
A|-----------------------------------------------------------------|
E|-----------------------------------------------------------------|


Em            D    C         G  Asus2
  keep missin you   is all I do
Am         Em         G          D
  speak to me tell me how is the view...
Em           D    C         G   Asus2
  it hurts inside  the city cries
Am        Em        G         D
  god you made a mistake that night...


      Em       D  C          G  Asus2    Am
and I miss you, I miss you tonight and I miss you...
          Em         G          D
(speak to me tell me how is the view)
      Em      D   C          G   Asus2    Am
and I miss you, I miss you tonight, and I miss you...
         Em        G         D
(god you made a mistake that night)
Em
I miss you

            
            
Suggest correction
Creating personal tab
Creating personal tab
You can edit any tab online and save it as your Personal.

You can edit, replace or remove any tab part or add personal notes – all changes will be seen only by you.

Personal tabs can be accessed anytime from any device, even offline.
Learn more »
comments
print report bad tab
2 comments total.
0 reply
ShrimpthePimp 785 Jul 15, 2007 08:19 PM

you think you could tab out the harmony guitar part?

0 reply
xlog 134 Jan 19, 2011 10:59 AM

Here is a bit of the lead guitar part in the end of the song, hope you'll correct it.

e|:--------------------/5-7h8p7-----------|
B|:------4-5--7-4---------------7-8p7-----|
G|:---/7----------7-5-----------------9---|
D|:---------------------------------------|
A|:---------------------------------------|
E|:---------------------------------------|


Then:

e|:------14-15-------|
B|:------------15----|
G|:------------------|
D|:------------------|
A|:------------------|
E|:------------------|

e|:----/19-17-15-14-15--------------------|
B|:--------------------17-----12----15-16-|
G|:---------------------------------------|
D|:---------------------------------------|
A|:---------------------------------------|
E|:---------------------------------------|

e|:--------------------------------------------------------|
B|:--12-10-12-/17-15---------------------------------------|
G|:------------------12-11-12--/17-16-17p16p14--(Harmonic)-|
D|:---------------------------------------|
A|:---------------------------------------|
E|:---------------------------------------|


Any great tab, really hope for someone to tab the rest, but 'im to lazy to do it tonight.

guest
You may want to rate the tab now too:
select rating
Wanna post a correction for this tab? Suggest correction