Oops, an error
Loading. Please wait.

Send A Meat Truck Tab

version 1
version 1

Whole song

Interactive

2,515 views 1 this week
no commentswrite comment
1 2 3 4 5
please rate
add to favorites
launch autoscroll
font size
0
reset
how to read this tab
guitar tuner
Tab Pro tools
  • play this tab
  • loop segment
  • change instrument
  • show fretboard
  • metronome
×
Best way to learn
"Send A Meat Truck"
Autoscroll
slow
fast
+/-
esc
set tempo
stop
Contributor
Difficulty
intermediate
Band:  Confession
Song:  Send A Meat Truck
Album: Cancer

Tuning: Drop G# [G#,D#,G#,C#,F,A#]

UPDATE: Fixed Verse 2 a little bit, also fixed the breakdown and Outro B.
UPDATE: Fixed Verse 2 more, and some out of place palm mute dots.
UPDATE: Fixed Verse 1, Post Verse 1, Chorus, Solo [GUITAR ONE]

Should actually be close to perfect now.
Enjoy!


Intro/Verse x4

GUITAR ONE

A#|-------------------------------------------------|
F |-------------------------------------------------|
C#|---------------------------------------17---17---|
G#|---------------------------------14-15---15---15-|
D#|----000------000------000-----15-----------------|
G#|-0~~000-0~0~~000-0~0~~000-0-0--------------------|
PM     ...      ...      ... . .

GUITAR TWO

A#|-----------------------------------------------|
F |-----------------------------------------------|
C#|-----------------------------------------------|
G#|-------------------------------------10---10---|
D#|----000------000------000--------7-8----8----8-|
G#|-0~~000-0~0~~000-0~0~~000-0-0-10---------------|
PM     ...      ...      ... . .


Post-Verse 1

GUITAR ONE

A#|-----------------------------------------------|
F |-----------------------------------------------|
C#|-----------------------------------------------|
G#|-0~~~~~~~~~~~~~~~~~~~~~~~~~~~~~~~~~~~~~~~~~~~~-|
D#|-0~~~~~~~~~~~~~~~~~~~~~~~~~~~~~~~~~~~~~~~~~~~~-|
G#|-0~~~~~~~~~~~~~~~~~~~~~~~~~~~~~~~~~~~~~~~~~~~~-|

GUITAR TWO

A#|------------------------------------------------------|
F |------------------------------------------------------|
C#|------------------------------------------------------|
G#|------------------------------------------------------|
D#|-0~-00000-0-00000-0-0-0000-0-0-0000-0-12------10------|
G#|-0~-00000-0-00000-0-0-0000-0-0-0000-0----10-8----10-8-|
PM     .....   ..... . . .... . . .... .


Chorus x2

GUITAR ONE

A#|------------------------------------------------------------------|
F |------------------------------------------------------------------|
C#|----------5---------------5---------------------------------------|
G#|------------------------------------------10---------------10-----|
D#|----5-7-8---8-7-----5-7-8----8-7----7-7-8----8-7-----7-7-8----8-7-|
G#|-8~--------------8~--------------8~---------------8~--------------|

continued.

A#|----------------------------------|
F |----------------------------------|
C#|----------------------------------|
G#|-0-------0-------0-------0--------|
D#|-0--0000-0--0000-0--0000-0--00000-|
G#|-0--0000-0--0000-0--0000-0--00000-|
PM     ....    ....    ....    .....


GUITAR TWO

A#|-------5~~-------5~-------3~~-------3~~-|
F |----3~--------3~-------3~--------3~-----|
C#|-5~--------5~-------5~--------5~--------|
G#|----------------------------------------|
D#|----------------------------------------|
G#|----------------------------------------|

continued.

A#|-------8~~-------8~-------8~~-------8~~-|
F |----6~--------6~-------6~--------6~-----|
C#|-9~--------9~-------9~--------9~--------|
G#|----------------------------------------|
D#|----------------------------------------|
G#|----------------------------------------|


Verse 2 x2

A#|----------------------------------|
F |----------------------------------|
C#|----------------------------------|
G#|----------------------------------|
D#|----------------------------------|
G#|-1^~~000-0-0--000-1^~~000-0-0-000-|
PM      ...      ...     ...     ...


Breakdown

A#|---------------------------------------|
F |---------------------------------------|
C#|---------------------------------------|
G#|-0-0---000-0-000-0-0---------000-0-000-|
D#|-0-0---000-0-000-0-0---------000-0-000-|
G#|-0-0---000-0-000-0-0---------000-0-000-|
PM  . .   ... . ... . .         ... . ...

continued...

A#|---------------------------------------|
F |---------------------------------------|
C#|---------------------------------------|
G#|-0---000-0-000-0-0~~~~~~~~~~~~~--------|
D#|-0---000-0-000-0-0~~~~~~~~~~~~~-4*vvvv-|
G#|-0---000-0-000-0-0~~~~~~~~~~~~~--------|
PM  .   ... . ... .

continued...

A#|---------------------------------------|
F |---------------------------------------|
C#|---------------------------------------|
G#|-0~~~~~000~0~000~0~0~~~~~~~~~000~0~000-|
D#|-0~~~~~000~0~000~0~0~~~~~~~~~000~0~000-|
G#|-1~~~~~111~1~111~1~1~~~~~~~~~111~1~111-|
PM  .     ... . ... . .         ... . ...

continued...

A#|---------------------------------------|
F |---------------------------------------|
C#|---------------------------------------|
G#|-0~~~000~0~000~0~0~~~~~~~~~~~~~~~~~~~~-|
D#|-0~~~000~0~000~0~0~~~~~~~~~~~~~~~~~~~~-|
G#|-1~~~111~1~111~1~1~~~~~~~~~~~~~~~~~~~~-|
PM  .   ... . ... . .


Chorus x2

GUITAR ONE

A#|------------------------------------------------------------------|
F |------------------------------------------------------------------|
C#|----------5---------------5---------------------------------------|
G#|------------------------------------------10---------------10-----|
D#|----5-7-8---8-7-----5-7-8----8-7----7-7-8----8-7-----7-7-8----8-7-|
G#|-8~--------------8~--------------8~---------------8~--------------|

continued.

A#|----------------------------------|
F |----------------------------------|
C#|----------------------------------|
G#|-0-------0-------0-------0--------|
D#|-0--0000-0--0000-0--0000-0--00000-|
G#|-0--0000-0--0000-0--0000-0--00000-|
PM     ....    ....    ....    .....


GUITAR TWO

A#|-------5~~-------5~-------3~~-------3~~-|
F |----3~--------3~-------3~--------3~-----|
C#|-5~--------5~-------5~--------5~--------|
G#|----------------------------------------|
D#|----------------------------------------|
G#|----------------------------------------|

continued.

A#|-------8~~-------8~-------8~~-------8~~-|
F |----6~--------6~-------6~--------6~-----|
C#|-9~--------9~-------9~--------9~--------|
G#|----------------------------------------|
D#|----------------------------------------|
G#|----------------------------------------|


Verse 1 x4

GUITAR ONE

A#|-------------------------------------------------|
F |-------------------------------------------------|
C#|---------------------------------------17---17---|
G#|---------------------------------14-15---15---15-|
D#|----000------000------000-----15-----------------|
G#|-0~~000-0~0~~000-0~0~~000-0-0--------------------|
PM     ...      ...      ... . .

GUITAR TWO

A#|-----------------------------------------------|
F |-----------------------------------------------|
C#|-----------------------------------------------|
G#|-------------------------------------10---10---|
D#|----000------000------000--------7-8----8----8-|
G#|-0~~000-0~0~~000-0~0~~000-0-0-10---------------|
PM     ...      ...      ... . .


Post-Verse 2 x2

A#|-----------------------------------------------|
F |-----------------------------------------------|
C#|-----------------------------------------------|
G#|-0~~~~~~~~~~~~~~~~~~~~~~~~~~~~~~~~~~~~~~~~~~~~-|
D#|-0~~~~~~~~~~~~~~~~~~~~~~~~~~~~~~~~~~~~~~~~~~~~-|
G#|-0~~~~~~~~~~~~~~~~~~~~~~~~~~~~~~~~~~~~~~~~~~~~-|


Solo x5

GUITAR ONE
A#|-----------------------------------------------------------------------|
F |-----------------------------------------------------------------------|
C#|----------5---------------5--------------------------------------------|
G#|-----------------------------------------14----------14h15p14----------|
D#|----5-7-8---8-7-----5-7-8-------------12----15-12-15----------15h17p15-|
G#|-8~--------------8~----------12-14-15----------------------------------|

GUITAR TWO

A#|-----------------------------------------------|
F |-15~~15h16p15-----------15~~15h16p15-----------|
C#|--------------15/17~~~~--------------15/17~~~~-|
G#|-----------------------------------------------|
D#|-----------------------------------------------|
G#|-----------------------------------------------|


Outro A x8

GUITAR ONE

A#|-------------------------------------|
F |-------------------------------------|
C#|-------------------------------------|
G#|-88888888-88888888-00000000-00000000-|
D#|-88888888-88888888-00000000-00000000-|
G#|-88888888-88888888-00000000-00000000-|

GUITAR TWO

A#|-------------------------|
F |-------------------------|
C#|-------17~~-/19~---------|
G#|-14/15-----------19-17~~-| x4
D#|-------------------------|
G#|-------------------------|


Outro B x4

GUITAR ONE

A#|--------------------------------------------|
F |--------------------------------------------|
C#|--------------------------------------------|
G#|-12-12--------------1212-8--8--88-8--8--8-8-|
D#|-12-12--------------1212-8--8--88-8--8--8-8-|
G#|-12-12--------------1212-8--8--88-8--8--8-8-|
PM  .  .               . .  .  .  .. .  .  . .

GUITAR TWO

A#|---------------------------------------------------|
F |---------------------------------------------------|
C#|---------------------------------------------------|
G#|------14h15-14h15-14h15-14h15-14h15-14h15p14-------|x2
D#|--------------------------------------------15~~~~-|
G#|---------------------------------------------------|


End on:

A#|---------------------|
F |---------------------|
C#|---------------------|
G#|-12~~~~~~~~~~~~~~~~~~|
D#|-8~~~~~~~~~~~~~~~~~~~|
G#|-8~~~~~~~~~~~~~~~~~~~|

Have fun playing it! If you're actually game to tune down that low...
comments
We did not receive enough feedback on this tab! Please rate:
print report bad tab
1 2 3 4 5
I want to post or [tab]
guest
You may want to rate the tab now too:
select rating
Please do not post tabs as comments. Select "correction" instead!