Oops, an error
Loading. Please wait.

Axiom Tab

version 1
version 1

Whole song

Interactive

14,490 views 15 this week
4 commentsread comments
1 2 3 4 5
x 10
add to favorites
launch autoscroll
font size
0
reset
how to read this tab
guitar tuner
Autoscroll
slow
fast
+/-
esc
set tempo
stop
Help us to improve Ultimate-Guitar.com Take our survey!
×
Author
Difficulty
Tuning
intermediate
D# G# C# F# A# D#
Title: Axiom
Artist: The Contortionist
Album: Exoplanet
Tempo: 115
Tuning: Down 1/2 step (Eb Ab Db Gb Bb Eb)
Tabbed by: Erin Milard
Corrections to: ezzatron at gmail

First tab. Made it because this is a great song by an awesome band, and all the existing 
tabs are rubbish.
This song appears to be in a different tuning to the rest of the album, which is in drop 
Gb or something.
Most of this spot on, except some of the barre chords which may be slightly different.

Enjoy!

Guitar 1:
D#|-------|-----7----------|-------|--------7/8-----------------|
A#|--8----|--7--------7----|--8----|--7-----------------7-------|
F#|-------|----------------|-------|----------------------------|
C#|-------|----------------|-------|----------------------------|
G#|--7----|----------------|--5----|----------------------------|
D#|-------|----------------|-------|----------------------------|

D#|--0-------------------------|----------------------------|
A#|--------5-----------5-------|--------5-----------5-------|
F#|-----------4-----------4----|-----------4-----------4----|
C#|-----------------5----------|-----------------5----------|
G#|--3-------------------------|--3-------------------------|
D#|----------------------------|----------------------------|

D#|----------------------------|----------------------------|
A#|--------5-----------5-------|--------5-----------5-------|
F#|-----------4-----------4----|-----------4-----------4----|
C#|-----------------5----------|-----------------5----------|
G#|--3-------------------------|--3-------------------------|
D#|----------------------------|----------------------------|

D#|----------------------|----------------------|----------------------------|
A#|--3--------5----------|--1--------3----------|--0-----------------1p0-----|
F#|--------0--------0----|--------0--------0----|----------------------------|
C#|----------------------|----------------------|----------------------------|
G#|--2--------3----------|--0--------2----------|----------------------------|
D#|----------------------|----------------------|--1-------------------------|

D#|-------|----------------------------|--------------0-------------|
A#|-------|--0-----------------1p0-----|--------0-------------------|
F#|--2----|----------------------------|--0h2------2-----------0----|
C#|-------|----------------------------|----------------------------|
G#|-------|----------------------------|----------------------------|
D#|--1----|--1-------------------------|----------------------------|

D#|--------------------------2-------------------------|
A#|--0h3---------1p0-----------------------------------|
F#|--------0-------------------------------------------|
C#|----------------------------------------------------|
G#|----------------------------------------------------|
D#|----------------------------------------------------|

D#|----------------------------|-------|----------------------------|
A#|--0-----------------1p0-----|-------|--0-----------------1p0-----|
F#|----------------------------|--2----|----------------------------|
C#|----------------------------|-------|----------------------------|
G#|----------------------------|-------|----------------------------|
D#|--1-------------------------|--1----|--1-------------------------|

D#|--------------0-------------|-----0--4p0------2p0--------|-------|
A#|--------0--/2----4--2p0-----|--/2---------/4--------4----|-------|
F#|----------------------------|----------------------------|-------|
C#|-----2----------------------|----------------------------|-------|
G#|--0-------------------------|----------------------------|-------|
D#|----------------------------|----------------------------|-------|

D#|--/7------------------------|--0-------------------------|
A#|-----9--7-------------------|----------------------------|
F#|-----------9--------8-------|-----8--------------8-------|
C#|-----------------6-----6----|--------6--------6-----6----|
G#|--------------4-------------|-----------4--4-------------|
D#|----------------------------|----------------------------|

D#|--0-------------------------|--------------0-------------|
A#|--------------------0p2-----|--------3--------3----------|
F#|-----8----------------------|-----0-----0--------0-------|
C#|--------6--------2----------|----------------------------|
G#|-----------4--0-------------|--3--------------------3----|
D#|----------------------------|----------------------------|

D#|--------------0-------------|--------------0-------------|
A#|--------3--------3----------|----------------------------|
F#|-----0-----0--------0-------|--------8--------8----------|
C#|----------------------------|-----6-----6--------6-------|
G#|--3--------------------3----|--4--------------------4----|
D#|----------------------------|----------------------------|

D#|--------------0-------------|----------------------------|
A#|----------------------------|--------0p2---------3-------|
F#|--------8--------8----------|-----------------0-----0----|
C#|-----6-----6--------6-------|-----2----------------------|
G#|--4--------------------4----|--0-----------3-------------|
D#|----------------------------|----------------------------|

D#|--0-------------------------|--0-------------------------|
A#|-----3--------------3-------|-----3----------------------|
F#|--------0--------0-----0----|--------0-----------8-------|
C#|----------------------------|-----------------6-----6----|
G#|-----------3--3-------------|-----------3--4-------------|
D#|----------------------------|----------------------------|

D#|--0-------------------------|--0-------------------------|
A#|----------------------------|--------------------0p2-----|
F#|-----8--------------8-------|-----8----------------------|
C#|--------6--------6-----6----|--------6--------2----------|
G#|-----------4--4-------------|-----------4--0-------------|
D#|----------------------------|----------------------------|

D#|--------------0-------------|--------------0-------------|
A#|--------3--------3----------|--------3--------3----------|
F#|-----0-----0--------0-------|-----0-----0--------0-------|
C#|----------------------------|----------------------------|
G#|--3--------------------3----|--3--------------------3----|
D#|----------------------------|----------------------------|

D#|--------------0-------------|--------------0-------------|
A#|----------------------------|----------------------------|
F#|--------8--------8----------|--------8--------8----------|
C#|-----6-----6--------6-------|-----6-----6--------6-------|
G#|--4--------------------4----|--4--------------------4----|
D#|----------------------------|----------------------------|

D#|----------------------------|--0-------------------------|
A#|--------0p2---------3-------|-----3--------------3-------|
F#|-----------------0-----0----|--------0--------0-----0----|
C#|-----2----------------------|----------------------------|
G#|--0-----------3-------------|-----------3--3-------------|
D#|----------------------------|----------------------------|

D#|--0-------------------------|--0-------------------------|--0-------------|
A#|-----3--------------3-------|-----3--------------3-------|-----3----------|
F#|--------0--------0-----0----|--------0--------0-----0----|--------0-------|
C#|----------------------------|----------------------------|----------------|
G#|-----------3--3-------------|-----------3--3-------------|-----------3----|
D#|----------------------------|----------------------------|----------------|

D#|--7---|------|--3---|------|--7---|------|--3---|------|--7----|--2----|
A#|--8---|------|--0---|------|--8---|------|--0---|------|--8----|--3----|
F#|--9---|------|--0---|------|--9---|------|--0---|------|--9----|--2----|
C#|--9---|------|--2---|------|--9---|------|--2---|------|--9----|--0----|
G#|--7---|------|--3---|------|--7---|------|--3---|------|--7----|-------|
D#|------|------|------|------|------|------|------|------|-------|-------|

D#|----------------|--0-------------|--0----|--7*---|
A#|-----------3----|-----3----------|--8----|--7*---|
F#|--------0-------|--------0-------|--0----|--7*---|
C#|-----4----------|-----------4----|--9----|-------|
G#|--3-------------|----------------|--8----|-------|
D#|----------------|----------------|-------|-------|

Second guitar comes in here.

   Guitar 1:
D#|--/15--------------|--14---------------|-------------------|--19---------------|--17-------------|
A#|--/17--------------|--15---------------|--15---------------|--20---------------|--19-------------|
F#|-------------------|-------------------|--16---------------|-------------------|-----------------|
C#|-------------------|-------------------|-------------------|-------------------|-----------------|
G#|-------------------|-------------------|-------------------|-------------------|-----------------|
D#|-------------------|-------------------|-------------------|-------------------|-----------------|

   Guitar 2:
D#|-------------------|-------------------|-------------------|-------------------|-----------------|
A#|-------------------|-------------------|-------------------|-------------------|-----------------|
F#|---0---------------|--4----------------|--0----------------|--4----------------|-----------------|
C#|-------------------|--2----------------|-------------------|--2----------------|--4--------------|
G#|---3---------------|-------------------|--3----------------|-------------------|--2--------------|
D#|-------------------|-------------------|-------------------|-------------------|-----------------|

D#|---15--------------|--14---------------|-------------------|--19---------------|--17-------------|
A#|---17--------------|--15---------------|--15---------------|--20---------------|--19-------------|
F#|-------------------|-------------------|--16---------------|-------------------|-----------------|
C#|-------------------|-------------------|-------------------|-------------------|-----------------|
G#|-------------------|-------------------|-------------------|-------------------|-----------------|
D#|-------------------|-------------------|-------------------|-------------------|-----------------|

D#|-------------------|-------------------|-------------------|-------------------|-----------------|
A#|-------------------|-------------------|-------------------|-------------------|-----------------|
F#|---0---------------|--4----------------|--2----------------|--0----------------|--4--------------|
C#|-------------------|--2----------------|--0----------------|-------------------|--2--------------|
G#|---3---------------|-------------------|-------------------|--3----------------|-----------------|
D#|-------------------|-------------------|-------------------|-------------------|-----------------|

D#|---15--------------|--14---------------|-------------------|--19---------------|--17-------------|
A#|---17--------------|--15---------------|--15---------------|--20---------------|--19-------------|
F#|-------------------|-------------------|--16---------------|-------------------|-----------------|
C#|-------------------|-------------------|-------------------|-------------------|-----------------|
G#|-------------------|-------------------|-------------------|-------------------|-----------------|
D#|-------------------|-------------------|-------------------|-------------------|-----------------|

D#|-------------------|-------------------|-------------------|-------------------|-----------------|
A#|-------------------|-------------------|-------------------|-------------------|-----------------|
F#|---0---------------|--4----------------|-------------------|--0----------------|--4--------------|
C#|-------------------|--2----------------|--4----------------|-------------------|--2--------------|
G#|---3---------------|-------------------|--2----------------|--3----------------|-----------------|
D#|-------------------|-------------------|-------------------|-------------------|-----------------|

D#|---15--------------|--14---------------|-------------------|--19---------------|--17-------------|
A#|---17--------------|--15---------------|--15---------------|--20---------------|--19-------------|
F#|-------------------|-------------------|--16---------------|-------------------|-----------------|
C#|-------------------|-------------------|-------------------|-------------------|-----------------|
G#|-------------------|-------------------|-------------------|-------------------|-----------------|
D#|-------------------|-------------------|-------------------|-------------------|-----------------|

D#|-------------------|-------------------|-------------------|-------------------|-----------------|
A#|-------------------|-------------------|-------------------|-------------------|-----------------|
F#|---2---------------|--0----------------|--4----------------|--0----------------|--4--------------|
C#|---0---------------|-------------------|--2----------------|-------------------|--2--------------|
G#|-------------------|--3----------------|-------------------|--3----------------|-----------------|
D#|-------------------|-------------------|-------------------|-------------------|-----------------|

D#|---15--------------|--14---------------|-------------------|--19---------------|--17-------------|
A#|---17--------------|--15---------------|--15---------------|--20---------------|--19-------------|
F#|-------------------|-------------------|--16---------------|-------------------|-----------------|
C#|-------------------|-------------------|-------------------|-------------------|-----------------|
G#|-------------------|-------------------|-------------------|-------------------|-----------------|
D#|-------------------|-------------------|-------------------|-------------------|-----------------|

D#|-------------------|-------------------|-------------------|-------------------|-----------------|
A#|-------------------|-------------------|-------------------|-------------------|-----------------|
F#|-------------------|--0----------------|--4----------------|--2----------------|--0--------------|
C#|---4---------------|-------------------|--2----------------|--0----------------|-----------------|
G#|---2---------------|--3----------------|-------------------|-------------------|--3--------------|
D#|-------------------|-------------------|-------------------|-------------------|-----------------|

D#|---15--------------|--14---------------|-------------------|--19---------------|--17-------------|
A#|---17--------------|--15---------------|--15---------------|--20---------------|--19-------------|
F#|-------------------|-------------------|--16---------------|-------------------|-----------------|
C#|-------------------|-------------------|-------------------|-------------------|-----------------|
G#|-------------------|-------------------|-------------------|-------------------|-----------------|
D#|-------------------|-------------------|-------------------|-------------------|-----------------|

D#|-------------------|-------------------|-------------------|-------------------|-----------------|
A#|-------------------|-------------------|-------------------|-------------------|-----------------|
F#|---4---------------|--0----------------|--4----------------|-------------------|--0--------------|
C#|---2---------------|-------------------|--2----------------|--4----------------|-----------------|
G#|-------------------|--3----------------|-------------------|--2----------------|--3--------------|
D#|-------------------|-------------------|-------------------|-------------------|-----------------|

D#|---15--------------|--14---------------|-------------------||
A#|---17--------------|--15---------------|--15---------------||
F#|-------------------|-------------------|--16---------------||
C#|-------------------|-------------------|-------------------||
G#|-------------------|-------------------|-------------------||
D#|-------------------|-------------------|-------------------||

D#|-------------------|-------------------|-------------------||
A#|-------------------|-------------------|-------------------||
F#|---4---------------|--2----------------|--0----------------||
C#|---2---------------|--0----------------|-------------------||
G#|-------------------|-------------------|--3----------------||
D#|-------------------|-------------------|-------------------||


************************************

| /  Slide up
| p  Pull-off
| h  Hammer-on
| *  Natural harmonic

************************************
Suggest correction
comments
print report bad tab
4 comments total. Showing first comments.
0 reply
MeTallIcA313 20 Aug 06, 2011 03:11 PM

Well done dude!

0 reply
ezzatron 72 Aug 08, 2011 09:57 AM

Thanks man :)

0 reply
breadtruck 244 May 24, 2013 11:42 AM

great job my friend you've saved me some time working this out. what a beautiful song this is.

guest
You may want to rate the tab now too:
select rating
Wanna post a correction for this tab? Suggest correction