Oops, an error
Loading. Please wait.

Flourish Tab

version 1
version 1

Solo

Interactive

7,279 views 3 this week
no commentswrite comment
1 2 3 4 5
accurate
x 3
add to favorites
launch autoscroll
font size
0
reset
how to read this tab
guitar tuner
Autoscroll
slow
fast
+/-
esc
set tempo
stop
Help us to improve Ultimate-Guitar.com Take our survey!
×
Author
Difficulty
intermediate
The Contortionist "Flourish"

This is the melodic section starting around 1:52. 
I can't tune to Drop Ab, so this is in STANDARD tuning. 
There are a couple of spots that u have to listen for repeats and timing,
but other than that it is accurate. ENJOY!
/ slide
' tremolo
~ hold
br bend release

E|--------------------|-----------------------|--------------------|
b|----------------14~-|--------------14-11-9~-|----------------14~-|
g|--/11-10------------|-/11-10----------------|--/11-10------------|
d|---------11-13------|--------11-13----------|--------11-13-------|
a|--------------------|-----------------------|--------------------|
e|--------------------|-----------------------|--------------------|

E|----------------------|----------------------------|----------------------|
b|-------------14-11-9~-|---------------14--16-18-16-|-------------14-11-9~-|
g|-/11-10---------------|-/11-10---------------------|-/11-10---------------|
d|--------11-13---------|--------11-13---------------|--------11-13---------|
a|----------------------|----------------------------|----------------------|
e|----------------------|----------------------------|----------------------|
                                                                         With delay
E|----------------|-----------------------|--------|--------------------|
b|-/12--11--------|-----------------------|--------|*--11------11-------|
g|-----------10~~-|--11'--13'--15'--18'---|--------|------13-------13---|
d|----------------|-----------------------|--------|--------------------|x4
a|----------------|-----------------------|--------|*-------------------|
e|----------------|-----------------------|--------|--------------------|

E|-------------------|  |--------------------------|
b|--14------14-------|  |-14----------18-18-19-19-*|
g|-----16------16----|  |----16--------------------|
d|-------------------|  |--------------------------|
a|-------------------|x3|-------------------------*|
e|-------------------|  |--------------------------|
  no delay
E|--------------------------------------------------------|
b|*16------------16------------16-------------16----------|
g|---13--15br-13---13--15br-13----13--15br-13----13--15br-|
d|--------------------------------------------------------|
a|*-------------------------------------------------------|
e|--------------------------------------------------------|

E|--------------------------|
b|--------------------------|
g|-13/16--15-13-11-10-11-8--|
d|--------------------------|
a|--------------------------|
e|--------------------------|

E|--------------------------------------------------------------|
b|/18-16-------------16-------------16-------------16-----------|
g|-------13--15br-13----13--15br-13----13--15br-13----13--15br--|
d|--------------------------------------------------------------|
a|--------------------------------------------------------------|
e|--------------------------------------------------------------|

E|-----------------------|-----------------------------------|
b|----14----14----14-----|-19-19-19-18-18-18----------------*|
g|-16----16----16----16--|-------------------15-15-15-18-18--|
d|-----------------------|-----------------------------------|
a|-----------------------|----------------------------------*|
e|-----------------------|-----------------------------------|

E|--------------------------------------------------14--|
b|-16------------16------------16------------16---------|
g|----13--15--13----13--15--13----13--15--13----13------|
d|------------------------------------------------------|
a|------------------------------------------------------|
e|------------------------------------------------------|

E|------------------------|
b|------------------------|
g|-15'---18'--13'-15'-10'-|
d|------------------------|
a|------------------------|
e|------------------------|

E|---------------------------------------------------------|
b|---------------------------------------------------------|
g|-11'--13'-8'-15'--16'18'--13'-15'-11'-10'-8'-6'-4'-3'----|
d|------------------------------------------------------4'-|
a|---------------------------------------------------------|
e|---------------------------------------------------------|

E|-14'-18'-13'-14'-18'-13'-9'-14'-18'-13'-14'--|
b|---------------------------------------------|
g|---------------------------------------------|
d|---------------------------------------------|
a|---------------------------------------------|
e|---------------------------------------------|

E|------------------------------------------|
b|------------------------------------------|
g|-10-------10-------10h11p10----13---------|
d|----11-------11-------------11-----8/6\8--|
a|-------13-------13------------------------|
e|------------------------------------------|

E|----------------------------------------|
b|----------------------------------------|
g|----------------------------------------|
d|-8h9---8---8br---8---8br---8---8br---8--|
a|-----9---9-----9---9-----9---9-----9---9|
e|----------------------------------------|


E|----------------------------------------------------|
b|*--------------------------------------------------*|
g|----------------------------------------------------|
d|-8h9---8---8br---8---8br---8---8br---8---11---------|
a|*----9---9-----9---9-----9---9-----9---9----9-11-9-*|
e|----------------------------------------------------|

E|--------------------------------------------------------|-----|
b|*------------------------------------------------------*|-----|
g|-15br----15----15br----15----15br----15---18------------|-----|
d|------16----16------16----16------16----16---16-18-16---|-17~-|
a|*------------------------------------------------------*|-----|
e|--------------------------------------------------------|-----|
Suggest correction
Give kudos to tab author, rate the tab!
1 2 3 4 5
comments
print report bad tab
guest
You may want to rate the tab now too:
select rating
Please do not post tabs as comments. Select "correction" instead!