Oops, an error
Loading. Please wait.

Language I Intuition Bass Tab

version 1
version 1

Whole song

  • You can listen the master track here (https://www.... Show more

Interactive

28 views 6 this week
no commentswrite comment
1 2 3 4 5
3 more votes to show rating
add to favorites
launch autoscroll
font size
0
reset
guitar tuner
Autoscroll
slow
fast
+/-
esc
set tempo
stop
Help us to improve Ultimate-Guitar.com Take our survey!
×
Author
Difficulty
advanced
About this tab version
You can listen the master track here (https://www.youtube.com/watch?v=C0Bc4pkSGfU). This version is a bit difficult and you can play on a 5-string bass tuned in D#. Was this info helpful? Yes No
The Contortionist 
Language I: Intuition

-bass tabs-

D# Tuning: G#,D#,G#,C#,F# (5 string bass)

Intro (good timing here)

-starts at nearly 1.11
F#|----------------------------------|-------------------------------------------|
C#|----------------------------------|-------------------------------------------|
G#|----------------------------------|---------------2-----6-----9--7--6---------|
D#|----------------------------------|------------------4-----7-----------9------|
G#|--4~------------------------------|--4--4--4-4-4------------------------------|

1st Verse
1st part x2
F#|------------------------------|-----------------------------------------------|
C#|------------------------------|-----------------------------------------------|
G#|---------------4--------------|-4---------------------------------------------|
D#|---2---2---2-2--------2--5----|----5---2-2-4---------2--4---------------------|
G#|------------------------------|-----------------------------------------------|

F#|---------------------------------|--------------------------------------------|
C#|---------------------------------|--------------------------------------------|
G#|---------------------------------|--------------------------------------------|
D#|---------------------------------|--------------------------------------------|
G#|---4---4---4-4-7------4--4-4-7---|--4--4---4-4-2------2---2---2--4------------|

2nd part x1

F#|-----------------------------------|------------------------------------------|
C#|-----------------------------------|------------------------------------------|
G#|-----------------------------------|------------------------------------------|
D#|----------------------------5--4---|-----------------------------4--5---------|
G#|---5---5---5-5-5~------5--7--------|----5---5---5-5-5~------5--7--------------|

F#|----------------------------------|-------------------------------------------|
C#|----------------------------------|-------------------------------------------|
G#|----------------------------------|-------------------------------------------|
D#|----------------------------------|-------------------------------------------|
G#|---4---4---4-4-7------4--4-4-2----|--4--4---4-4-2------2---2---2--4-----------|

F#|----------------------------------|-------------------------------------------|
C#|----------------------------------|-------------------------------------------|
G#|----------------------------------|-------------------------------------------|
D#|----------------------------5--4--|------------------------------4--5---------|
G#|---5---5---5-5-5~------5--7-------|-----5---5---5-5-5~------5--7--------------|

F#|----------------------------------|-------------------------------------------|
C#|----------------------------------|-------------------------------------------|
G#|----------------------------------|----------------2-----6-----9--7--6--------|
D#|----------------------------------|-------------------4-----7-----------9-----|
G#|---4---4---4-4-7------4--4-4-2----|-4--4---4-4-2------------------------------|

Chorus

F#|-----------------------------------------|------------------------------------|
C#|-----------------------------------------|------------------------------------|
G#|-----------------------------------------|------------------------------------|
D#|-----------------------------------------|------------------------------------|
G#|9--9--9--9--9--9--12--12--12--12--12--12-|-4--4--4--4--4--4--2--2--2--2--2--2-|

F#|-----------------------------------------|------------------------------------|
C#|-----------------------------------------|------------------------------------|
G#|------6--7--6-------------11--12--11-----|-------6--7--6-----------6--7--6----|
D#|---5-----------5-------9--------------9--|----4-----------4-----4-----------4-|
G#|9-------------------12-------------------|--4-----------------2---------------|

F#|-----------------------------------------|------------------------------------|
C#|-----------------------------------------|------------------------------------|
G#|-----------------------------------------|------------------------------------|
D#|-----------------------------------------|------------------------------------|
G#|9--9--9--9--9--9--12--12--12--12--12--12-|-4--4--4--4--4--4--2--2--2--2--2--2-|

F#|-----------------------------------------|------------------------------------|
C#|-----------------------------------------|------------------------------------|
G#|-----------------------------------------|----------------------2--------2----|
D#|-----------------------------------------|-------------------------2--------2-|
G#|9--9--9--9--9--9--12--12--12--12--12--12-|-4--4--4--4--4--4--2---------2------|

Bridge

F#|-------------------------------|----------------------------------------------|
C#|-------------------------------|----------------------------------------------|
G#|9~----------------12~----------|-----------4~----------------2~---------------|
D#|-------------------------------|----------------------------------------------|
G#|-------------------------------|----------------------------------------------|

F#|-------------------------------|----------------------------------------------|
C#|-------------------------------|---------------------------/16~---------------|
G#|9~----------------12~----------|----------/16~--------------------------------|
D#|-------------------------------|-----------------------------------11-12-11---|
G#|-------------------------------|----------------------------------------------|

F#|-------------------------------|----------------------------------------------|
C#|-------------------------------|----------------------------------------------|
G#|5-5~--------------4-4~---------|-----------7-7~-------------10-10~------------|
D#|-------------------------------|----------------------------------------------|
G#|-------------------------------|----------------------------------------------|

F#|-------------------------------|----------------------------------------------|
C#|-------------------------------|----------------------------------------------|
G#|5-5~--------------4-4~---------|-----------3-3~--------------4----------------|
D#|-------------------------------|----------------------------------------------|
G#|-------------------------------|----------------------------------------------|

F#|-------------------------------|----------------------------------------------|
C#|-------------------------------|----------------------------------------------|
G#|-------------------------------|----------------------------------------------|
D#|-------------------------------|----------------------------------------------|
G#|5-5~--------------4-4~---------|-----------7-7~-------------10-10~------------|

F#|-------------------------------|----------------------------------------------|
C#|-------------------------------|----------------------------------------------|
G#|-------------------------------|------------------------------4---------------|
D#|-------------------------------|----------------------------------------------|
G#|5-5~--------------4-4~---------|-----------3-3~-----------------4~------------|

F#|-------------------------------|----------------------------------------------|
C#|-------------------------------|----------------------------------------------|
G#|-------------------------------|--------------------------------9h10--7-------|
D#|-------------------------------|------------------------------10-------10-----|
G#|5-5~--------------4-4~---------|-----------7-7~-------------10-----------10---|

F#|-------------------------------|----------------------------------------------|
C#|-------------------------------|----------------------------------------------|
G#|-------------------------------|----------------------------------------------|
D#|-------------------------------|----------------------------------------------|
G#|5-5~--------------4-4~---------|-----------3~---------------------------------|

F#|-------------------------------------|----------------------------------------|
C#|-------------------------------------|----------------------------------------|
G#|------3-----------------3------------|----------3-----------------3-----------|
D#|--3-----3-----------3-----3----------|------3-----3-----------3-----3---------|
G#|3---3-----3---3---3---3-----3-----3--|----3---3-----3---3---3---3-----3-------|

F#|-------------------------------------|----------------------------------------|
C#|-------------------------------------|----------------------------------------|
G#|------3-----------------3------------|----------3-----------------3-----------|
D#|--3-----3-----------3-----3----------|------3-----3-----------3-----3---------|
G#|3---3-----3---3---3---3-----3-----3--|----3---3-----3---3---3---3-----3-------|

F#|------------------------------------------|-----------------------------------|
C#|------------------------------------------|-----------------------------------|
G#|------3-------------3---------------------|-----------------------------------|
D#|--3-----3-------3-----3-------3-----------|-----------------------------------|
G#|3---3-----3---3---3-----3---3---3--3/15/3-|-----------------------------------|

Outro

F#|--------------------------------|---------------------------------------------|
C#|--------------------------------|---------------------------------------------|
G#|--------------------------------|---------------------------------------------|
D#|------------------------2--3----|---------------------------------------------|
G#|3--3--3-3-3~------3-3h5---------|--3--3--3-3-3~------3-3b5-5--2~--------------|

F#|--------------------------------|---------------------------------------------|
C#|--------------------------------|---------------------------------------------|
G#|--------------------------------|---------------------------------------------|
D#|------------------------2--3----|---------------------------------------------|
G#|3--3--3-3-3~------3-3h5---------|--3--3--3-3-3~------3--7--7-2~---------------|

F#|--------------------------------|---------------------------------------------|
C#|--------------------------------|---------------------------------------------|
G#|--------------------------------|---------------------------------------------|
D#|------------------------2--3----|---------------------------------------------|
G#|3--3--3-3-3~------3-3h5---------|--3--3--3-3-3~------3-3b5-5--2~--------------|

F#|--------------------------------|---------------------------------------------|
C#|--------------------------------|---------------------------------------------|
G#|--------------------------------|---------------------------------------------|
D#|------------------------2--3----|---------------------------------------------|
G#|3--3--3-3-3~------3-3h5---------|--3--3--3-3-3~------3--7--7-2~---------------|

F#|--------------------------------|---------------------------------------------|
C#|--------------------------------|---------------------------------------------|
G#|--------------------------------|---------------------------------------------|
D#|------------------------2--3----|---------------------------------------------|
G#|----------3~------3-3h5---------|--3--3--3-3-3~------3-3b5-5--2~--------------|

F#|--------------------------------|---------------------------------------------|
C#|--------------------------------|---------------------------------------------|
G#|--------------------------------|---------------------------------------------|
D#|------------------------2--3----|---------------------------------------------|
G#|3--3--3-3-3~------3-3h5---------|--3--3--3-3-3~------3--7--7-2~---------------|

F#|--------------------------------|---------------------------------------------|
C#|--------------------------------|---------------------------------------------|
G#|--------------------------------|---------------------------------------------|
D#|------------------------2--3----|---------------------------------------------|
G#|3--3--3-3-3~------3-3h5---------|--3--3--3-3-3~------3-3b5-5--2~--------------|

F#|--------------------------------|---------------------------------------------|
C#|--------------------------------|---------------------------------------------|
G#|--------------------------------|---------------------------------------------|
D#|------------------------2--3----|---------------------------------------------|
G#|3--3--3-3-3~------3-3h5---------|--3--3--3-3-3~------3--7--7-2~---------------|

F#|--------------------------------|---------------------------------------------|
C#|--------------------------------|---------------------------------------------|
G#|--------------------------------|---------------------------------------------|
D#|------------------------2--3----|---------------------------------------------|
G#|3--3--3-3-3~------3-3h5---------|--3--3--3-3-3~------3-3b5-5--2~--------------|

F#|--------------------------------|---------------------------------------------|
C#|--------------------------------|---------------------------------------------|
G#|--------------------------------|---------------------------------------------|
D#|------------------------2--3----|---------------------------------------------|
G#|3--3--3-3-3~------3-3h5---------|--3--3--3-3-3~------3--7--7-2~---------------|

***********************************
| /   Slide up
| \   Slide down
| h   Hummer-on
| p   Pull-off
| ~   Vibrato
| x   Dead note
| b   Bend
***********************************










Suggest correction
Give kudos to tab author, rate the tab!
1 2 3 4 5
comments
print report bad tab
guest
You may want to rate the tab now too:
select rating
Wanna post a correction for this tab? Suggest correction