Oops, an error
Loading. Please wait.

Language I Intuition tab

version 1
version 1

Whole song

  • Updated the parts to reflect how Robby Baca actual... Show more

Interactive

18,565 views 75 this week
6 commentsread comments
1 2 3 4 5
x 11
add to favorites
×
Save as Personal and add changes to this tab that will be seen only by you. Learn more ›
×
You can save this tab as Personal to edit and correct it or add notes. All changes will be seen only by you. Learn more »
launch autoscroll
font size
0
reset
how to read this tab
guitar tuner
edit
Autoscroll
slow
fast
+/-
esc
set tempo
stop
Author
About this tab version
Updated the parts to reflect how Robby Baca actually played them, as per the Bias FX playthrough video. Was this info helpful? Yes No
Artist: The Contortionist 
Song: Language I: Intuition
From the 2014 album "Language"

Tuning: Bb Eb Ab Db Gb Bb Eb (down 1/2 step)

There are some other guitar tracks throughout the song, and I haven't figured out 
how to play those yet. The tapping lick was tough, I needed to slow the track down 
quite a bit, and check with the video. Some of the chords might be wrong, but I think
this matches pretty well with the song for the most part. The only section I'm a little
iffy about is the clean bridge part, the chords might be a little off there. I paid a 
little more attention to the barlines and repeats for the first half but I admit that 
about halfway through it, I got a little lazier with regards to format, but I don't 
think I really left anything out that is necessary to play the song. 


[Intro]
(clean tone w/delay)
   P.M. throughout
e|----------0--------|----------0--------|----------0--------|----------0--------|
b|------2-----2---2--|------2-----2---2--|------2-----2---2--|------2-----2---2--|
G|----4---4-----4----|----4---4-----4----|----4---4-----4----|----4---4-----4----|
D|--4----------------|--4----------------|--4----------------|--4----------------|
A|-------------------|-------------------|-------------------|-------------------|
E|-------------------|-------------------|-------------------|-------------------|
B|-------------------|-------------------|-------------------|-------------------|

e|----------0--------|----------0--------|----------0--------|----------0--------|
b|------2-----2---2--|------2-----2---2--|------2-----2---2--|------2-----2---2--|
G|----4---4-----4----|----4---4-----4----|----4---4-----4----|----4---4-----4----|
D|-------------------|-------------------|-------------------|-------------------|
A|--4----------------|--4----------------|--4----------------|--4----------------|
E|-------------------|-------------------|-------------------|-------------------|
B|-------------------|-------------------|-------------------|-------------------|

e|----------0--------|----------0--------|----------0--------|----------0--------|
b|------2-----2---2--|------2-----2---2--|------2-----2---2--|------2-----2---2--|
G|----4---4-----4----|----4---4-----4----|----4---4-----4----|----4---4-----4----|
D|--4----------------|--4----------------|--4----------------|--4----------------|
A|-------------------|-------------------|-------------------|-------------------|
E|-------------------|-------------------|-------------------|-------------------|
B|-------------------|-------------------|-------------------|-------------------|

e|----------0--------|----------0--------|----------0--------|----------0--------|
b|------2-----2---2--|------2-----2---2--|------2-----2---2--|------2-----2---2--|
G|----4---4-----4----|----4---4-----4----|----4---4-----4----|----4---4-----4----|
D|-------------------|-------------------|-------------------|-------------------|
A|--4----------------|--4----------------|--4----------------|--4----------------|
E|-------------------|-------------------|-------------------|-------------------|
B|-------------------|-------------------|-------------------|-------------------|

e|----------0--------|----------0--------|----------0--------|----------0--------|
b|------2-----2---2--|------2-----2---2--|------2-----2---2--|------2-----2---2--|
G|----4---4-----4----|----4---4-----4----|----4---4-----4----|----4---4-----4----|
D|--0----------------|--0----------------|--0----------------|--0----------------|
A|-------------------|-------------------|-------------------|-------------------|
E|-------------------|-------------------|-------------------|-------------------|
B|-------------------|-------------------|-------------------|-------------------|

e|----------0--------|----------0--------|----------0--------|----------0--------|
b|------2-----2---2--|------2-----2---2--|------2-----2---2--|------2-----2---2--|
G|----4---4-----4----|----4---4-----4----|----4---4-----4----|----4---4-----4----|
D|-------------------|-------------------|-------------------|-------------------|
A|--4----------------|--4----------------|--4----------------|--4----------------|
E|-------------------|-------------------|-------------------|-------------------|
B|-------------------|-------------------|-------------------|-------------------|

e|----------0--------|----------0--------|----------0--------|----------0--------|
b|------4-----4---4--|------4-----4---4--|------4-----4---4--|------4-----4---4--|
G|----2---2-----2----|----2---2-----2----|----2---2-----2----|----2---2-----2----|
D|--4----------------|--4----------------|--4----------------|--4----------------|
A|-------------------|-------------------|-------------------|-------------------|
E|-------------------|-------------------|-------------------|-------------------|
B|-------------------|-------------------|-------------------|-------------------|

e|----------0--------|----------0--------|----------0--------|----------0--------|
b|------4-----4---4--|------4-----4---4--|------4-----4---4--|------4-----4---4--|
G|----4---4-----4----|----4---4-----4----|----4---4-----4----|----4---4-----4----|
D|-------------------|-------------------|-------------------|-------------------|
A|--4----------------|--4----------------|--4----------------|--4----------------|
E|-------------------|-------------------|-------------------|-------------------|
B|-------------------|-------------------|-------------------|-------------------|

e|----------0--------|----------0--------|----------0--------|----------0--------|
b|------4-----4---4--|------4-----4---4--|------4-----4---4--|------4-----4---4--|
G|----2---2-----2----|----2---2-----2----|----2---2-----2----|----2---2-----2----|
D|--4----------------|--4----------------|--4----------------|--4----------------|
A|-------------------|-------------------|-------------------|-------------------|
E|-------------------|-------------------|-------------------|-------------------|
B|-------------------|-------------------|-------------------|-------------------|

e|----------0--------|----------0--------|----------0--------|----------0--------|
b|------4-----4---4--|------4-----4---4--|------4-----4---4--|------4-----4---4--|
G|----4---4-----4----|----4---4-----4----|----4---4-----4----|----4---4-----4----|
D|-------------------|-------------------|-------------------|-------------------|
A|--4----------------|--4----------------|--4----------------|--4----------------|
E|-------------------|-------------------|-------------------|-------------------|
B|-------------------|-------------------|-------------------|-------------------|

(w/dist.)                                 let ring_______________
e|--0----------------|-(0)---------------|-------------0-----|-(0)---------------|
b|--0----------------|-(0)---------------|-----4-------0-----|-(0)---------------|
G|--4----------------|-(4)---------------|--6-----6-/9-------|-------------------|
D|--x----------------|-------------------|-------------------|-------------------|
A|--4----------------|-(4)---------------|----------/7-------|-------------------|
E|-------------------|-------------------|-------------------|-------------------|
B|-------------------|-------------------|-------------------|-------------------|

[Verse]
(clean tone w/delay)
e|----------0--------|----------0--------|----------0--------|----------0--------|
b|------2-----2---2--|------2-----2---2--|------2-----2---2--|------2-----2---2--|
G|----4---4-----4----|----4---4-----4----|----4---4-----4----|----4---4-----4----|
D|--4----------------|--4----------------|--4----------------|--4----------------|
A|-------------------|-------------------|-------------------|-------------------|
E|-------------------|-------------------|-------------------|-------------------|
B|-------------------|-------------------|-------------------|-------------------|

e|----------0--------|----------0--------|----------0--------|----------0--------|
b|------2-----2---2--|------2-----2---2--|------2-----2---2--|------2-----2---2--|
G|----4---4-----4----|----4---4-----4----|----4---4-----4----|----4---4-----4----|
D|-------------------|-------------------|-------------------|-------------------|
A|--4----------------|--4----------------|--4----------------|--4----------------|
E|-------------------|-------------------|-------------------|-------------------|
B|-------------------|-------------------|-------------------|-------------------|

e|----------0--------|----------0--------|----------0--------|----------0--------|
b|------2-----2---2--|------2-----2---2--|------2-----2---2--|------2-----2---2--|
G|----4---4-----4----|----4---4-----4----|----4---4-----4----|----4---4-----4----|
D|--4----------------|--4----------------|--4----------------|--4----------------|
A|-------------------|-------------------|-------------------|-------------------|
E|-------------------|-------------------|-------------------|-------------------|
B|-------------------|-------------------|-------------------|-------------------|

e|----------0--------|----------0--------|----------0--------|----------0--------|
b|------2-----2---2--|------2-----2---2--|------2-----2---2--|------2-----2---2--|
G|----4---4-----4----|----4---4-----4----|----4---4-----4----|----4---4-----4----|
D|-------------------|-------------------|-------------------|-------------------|
A|--4----------------|--4----------------|--4----------------|--4----------------|
E|-------------------|-------------------|-------------------|-------------------|
B|-------------------|-------------------|-------------------|-------------------|

[Pre-Chorus]
(w/dist.)
e|------------0------|-------------------|------------0------|-------------------|
b|------------0------|-------------------|------------0------|-------------------|
G|------------6------|---7/9---/14\13----|------------6------|-------------------|
D|--4--4------4------|-------------------|--4--4------4------|--6--7----9--9-----|
A|--5--5--5-5-5------|---5/7---/12\11----|--5--5--5-5-5------|--x--x----x--x-----|
E|-------------------|-------------------|-------------------|--4--5----7--7-----|
B|-------------------|-------------------|-------------------|-------------------|

  P.M.______________________________________________________________________
e|-------------------|-------------------|-------------------|-------------------|
b|-------------------|-------------------|-------------------|-------------------|
G|-------------------|-------------------|-------------------|-------------------|
D|-------------------|-------------------|-------------------|-------------------|
A|-------------------|-------------------|-------------------|-------------------|
E|-------------------|-------------------|-------------------|-------------------|
B|--2----2-2-0-------|--0---0---0-2------|--2----2-2-0-------|--0---0---0-2------|

e|------------0------|-------------------|------------0------|-------------------|
b|------------0------|-------------------|------------0------|-------------------|
G|------------6------|---7/9---/14\13----|------------6------|-------------------|
D|--4--4------4------|-------------------|--4--4------4------|--6--7----9--9-----|
A|--5--5--5-5-5------|---5/7---/12\11----|--5--5--5-5-5------|--x--x----x--x-----|
E|-------------------|-------------------|-------------------|--4--5----7--7-----|
B|-------------------|-------------------|-------------------|-------------------|

  P.M.______________________________________________________________________
e|-------------------|-------------------|-------------------|-------------------|
b|-------------------|-------------------|-------------------|-------------------|
G|-------------------|-------------------|-------------------|-------------------|
D|-------------------|-------------------|-------------------|-/1----/4----------|
A|-------------------|-------------------|-------------/2----|-----2-------------|
E|-------------------|-------------------|-----------------4-|-----------2--0----|
B|--2----2-2-0-------|--0---0---0-2------|--2----2-2-0-------|-----------------4-|

[Chorus]
(Rhythm is all dotted eighth notes, let ring throughout)
e|-----------0--------|-----------0-----0--|-----------0--------|-----------2--------|
b|--------4-----4-----|--------9-----9-----|--------4-----4-----|--------4-----4-----|
G|-----2-----------2--|--------------------|-----4-----------4--|-----4-----------4--|
D|--4-----------------|----/7--------------|--------------------|--------------------|
A|--------------------|--0-----------------|--4-----------------|--2-----------------|
E|--------------------|--------------------|--------------------|--------------------|
B|--------------------|--------------------|--------------------|--------------------|

e|-----------0--------|-----------5--------|-----------0--------|-----------0--------|
b|--------4-----4-----|--------9-----9-----|--------4-----4-----|--------4-----4-----|
G|-----2-----------2--|--------------------|-----4-----------4--|-----4-----------4--|
D|--4-----------------|----/7-----------7--|--------------------|--------------------|
A|--------------------|--0-----------------|--4-----------------|--2-----------------|
E|--------------------|--------------------|--------------------|--------------------|
B|--------------------|--------------------|--------------------|--------------------|

e|-----------0--------|-----------0-----0--|-----------0--------|-----------2--------|
b|--------4-----4-----|--------9-----9-----|--------4-----4-----|--------4-----4-----|
G|-----2-----------2--|--------------------|-----4-----------4--|-----4-----------4--|
D|--4-----------------|----/7--------------|--------------------|--------------------|
A|--------------------|--0-----------------|--4-----------------|--2-----------------|
E|--------------------|--------------------|--------------------|--------------------|
B|--------------------|--------------------|--------------------|--------------------|

e|-----------0--------|-----------5--------|-----------0--------|--0--0--0--0--0--0--|
b|--------4-----4-----|--------9-----9-----|--------4-----4-----|--4--4--4--4--4--4--|
G|-----2-----------2--|--------------------|-----4-----------4--|--4--4--4--4--4--4--|
D|--4-----------------|----/7-----------7--|--------------------|--x--x--x--x--x--x--|
A|--------------------|--0-----------------|--4-----------------|--2--2--2--2--2--2--|
E|--------------------|--------------------|--------------------|--------------------|
B|--------------------|--------------------|--------------------|--------------------|

(Rest for drum fill)

[Bridge]
(clean tone)
e|--0-----------------|--0-----------------|--0-----------------|--0-----------------|
b|--4-----------------|--9-----------------|--4-----------------|--4-----------------|
G|--2-----------------|--6-----------------|--4-----------------|--4-----------------|
D|--4-----------------|--7-----------------|--x-----------------|--x-----------------|
A|--------------------|--------------------|--4-----------------|--2-----------------|
E|--------------------|--------------------|--------------------|--------------------|
B|--------------------|--------------------|--------------------|--------------------|

e|--0-----------------|--0-----------------|--0-----------------|--0-----------------|
b|--4-----------------|--9-----------------|--4-----------------|--4-----------------|
G|--2-----------------|--6-----------------|--4-----------------|--4-----------------|
D|--4-----------------|--7-----------------|--x-----------------|--x-----------------|
A|--------------------|--------------------|--4-----------------|--2-----------------|
E|--------------------|--------------------|--------------------|--------------------|
B|--------------------|--------------------|--------------------|--------------------|

e|--0-----------------|--0-----------------|--0-----------------|--0-----------------|
b|--3-----------------|--4-----------------|--5-----------------|--8-----------------|
G|--6-----------------|--4-----------------|--8-----------------|--11----------------|
D|--4-----------------|--x-----------------|--6-----------------|--9-----------------|
A|--5-----------------|--4-----------------|--7-----------------|--10----------------|
E|--------------------|--------------------|--------------------|--------------------|
B|--------------------|--------------------|--------------------|--------------------|

e|--0-----------------|--0-----------------|--3-----------------|--4-----------------|
b|--3-----------------|--4-----------------|--5-----------------|--5-----------------|
G|--6-----------------|--4-----------------|--4-----------------|--4-----------------|
D|--4-----------------|--x-----------------|--5-----------------|--6-----------------|
A|--5-----------------|--4-----------------|--3-----------------|--4-----------------|
E|--------------------|--------------------|--------------------|--------------------|
B|--------------------|--------------------|--------------------|--------------------|
 
                                              w/E-Bow
(Gtr. 2) (w/dist.)                                                ~~~~~~~~~~~~~~~~
e|--------------------|--------------------|--------------------|--------------------|
b|--------------------|--------------------|--------------------|--------------------|
G|--------------------|--------------------|--4-----------------|-(4)----------------|
D|--------------------|--------------------|--------------------|--------------------|
A|--------------------|--------------------|--------------------|--------------------|
E|--------------------|--------------------|--------------------|--------------------|
B|--------------------|--------------------|--------------------|--------------------|

e|--0-----------------|--0-----------------|--0-----------------|--0-----------------|
b|--3-----------------|--4-----------------|--5-----------------|--8-----------------|
G|--6-----------------|--4-----------------|--8-----------------|--11----------------|
D|--4-----------------|--x-----------------|--6-----------------|--9-----------------|
A|--5-----------------|--4-----------------|--7-----------------|--10----------------|
E|--------------------|--------------------|--------------------|--------------------|
B|--------------------|--------------------|--------------------|--------------------|
 
(sim. fade and vibrato on all notes for next 8 meas)
e|--------------------|--------------------|--------------------|--------------------|
b|--10----------------|--9-----------------|--(9)---------------|--8-----------------|
G|--------------------|--------------------|--------------------|--------------------|
D|--------------------|--------------------|--------------------|--------------------|
A|--------------------|--------------------|--------------------|--------------------|
E|--------------------|--------------------|--------------------|--------------------|
B|--------------------|--------------------|--------------------|--------------------|

e|--0-----------------|--0-----------------|--3-----------------|--4-----------------|
b|--2-----------------|--4-----------------|--5-----------------|--5-----------------|
G|--6-----------------|--4-----------------|--4-----------------|--4-----------------|
D|--4-----------------|--x-----------------|--5-----------------|--6-----------------|
A|--5-----------------|--4-----------------|--3-----------------|--4-----------------|
E|--------------------|--------------------|--------------------|--------------------|
B|--------------------|--------------------|--------------------|--------------------|
 
e|--------------------|--------------------|--------------------|--------------------|
b|--7-----------------|--(7)---------------|--5-----------------|--(5)---------------|
G|--------------------|--------------------|--------------------|--------------------|
D|--------------------|--------------------|--------------------|--------------------|
A|--------------------|--------------------|--------------------|--------------------|
E|--------------------|--------------------|--------------------|--------------------|
B|--------------------|--------------------|--------------------|--------------------|

(w/dist.)
e|--------------------|--------------------|--------------------|--------------------|
b|--------------------|--------------------|--------------------|--------------------|
G|--------------------|--------------------|--------------------|--------------------|
D|--------------------|--------------------|--------------------|--------------------|
A|--------------------|--------------------|--2-----------------|--2-----------------|
E|--5-----------------|--4-----------------|--0-----------------|--3-----------------|
B|--3-----------------|--2-----------------|--------------------|--------------------|

e|--------------------|--------------------|--0-----------------|
b|--------------------|--------------------|--0-----------------|
G|--------------------|--------------------|--0-----------------|
D|--------------------|--------------------|--2-----------------|
A|--------------------|--------------------|--3-----------------|
E|--5-----------------|--4-----------------|--3-----------------|
B|--3-----------------|--2-----------------|--1-----------------|

[Bridge 2]
(ebb and flow...)
e|--0---0------0---0--|
b|--0---0------0---0--|
G|--0---0------0---0--|
D|--2-----------------|
A|--3-----------------|
E|--3-----------------|
B|--1-----------------|
(Repeat this more than I'm willing to write out) 
(8x seems about right)

[Tapping riff]
(t=tap w/right hand middle finger)         (hammer on from nowhere)
e|------------0---------------------------------------|
b|------------0-----------------------------h5--------|
G|------------0------------------t7/9p4t11p4----------|
D|------------2------------t9p2h4---------------------|
A|--3--3--3-3-3---t10p2h3h5-------------------t10\9---|
E|--3--3--3-3-3---------------------------------------|
B|--1--1--1-1-1---------------------------------------|

[Outro riff]
e|------------0------------------|------------0-------------|
b|------------0------------------|------------0-------------|
G|------------0---------0--------|------------0-------------|
D|------------2-----/4-----4-----|------------2-------------|
A|--3--3--3-3-3---------------5--|--3--3--3-3-3----4--4-----|
E|--3--3--3-3-3------------------|--3--3--3-3-3----3--3-----|
B|--1--1--1-1-1------------------|--1--1--1-1-1--0-2--2--0--|

e|------------0---------------2--|------------0-------------|
b|------------0------------0--0--|------------0-------------|
G|------------0---------0--------|------------0-------------|
D|------------2-----/4-----------|------------2-------------|
A|--3--3--3-3-3------------------|--3--3--3-3-3----7--7-----|
E|--3--3--3-3-3------------------|--3--3--3-3-3----x--x-----|
B|--1--1--1-1-1------------------|--1--1--1-1-1--0/5--5--0--|

e|------------0------------------|------------0-------------|
b|------------0------------------|------------0-------------|
G|------------0---------0--------|------------0-------------|
D|------------2-----/4-----4-----|------------2-------------|
A|--3--3--3-3-3---------------5--|--3--3--3-3-3----7--7-----|
E|--3--3--3-3-3------------------|--3--3--3-3-3----x--x-----|
B|--1--1--1-1-1------------------|--1--1--1-1-1--0/5--5--0--|

e|------------0---------------2--|------------0-------------|
b|------------0------------0--0--|------------0-------------|
G|------------0---------0--------|------------0-------------|
D|------------2-----/4-----------|------------2-------------|
A|--3--3--3-3-3------------------|--3--3--3-3-3----4--4-----|
E|--3--3--3-3-3------------------|--3--3--3-3-3----3--3-----|
B|--1--1--1-1-1------------------|--1--1--1-1-1--0-2--2--0--|

[Verse] 
(x4)
e|------------0-------------|
b|------------0-------------|
G|------------0-------------|
D|------------2-------------|
A|--3--3--3-3-3----5--5-----|
E|--3--3--3-3-3----5--5-----|
B|--1--1--1-1-1--0-3--3--0--|

(Repeat verse riff under guitar solo)
                                A.H.
e|----------------------------------------|
b|--5---7--b8r7--5-----------5---7--b8r7--|
G|------------------7~~~~~~---------------|
D|----------------------------------------|
A|----------------------------------------|
E|----------------------------------------|
B|----------------------------------------|

(Rhy. Gtr. plays tapping riff during first bar of this passage, then verse riff till end)
(tp=tremolo picking)
e|---------------------------------------------------|
b|--5tp------8tp------12tp----15tp----19tp----22tp---|
G|---------------------------------------------------|
D|---------------------------------------------------|
A|---------------------------------------------------|
E|---------------------------------------------------|
B|---------------------------------------------------|

e|----------------------------------|
b|--5tp------8tp------12tp----15tp--|
G|----------------------------------|
D|----------------------------------|
A|----------------------------------|
E|----------------------------------|
B|----------------------------------| 
(Abrupt end to song, segue into pt. 2)


************************************

| x    Dead note
| (n)  Ghost note
| h    Hammer-on
| p    Pull-off
| r    Release
| t    Tapping
| b    Bend
| /    Slide up
| \    Slide down
| ~    Vibrato
| tp   tapping

************************************
Suggest correction
Creating personal tab
Creating personal tab
You can edit any tab online and save it as your Personal.

You can edit, replace or remove any tab part or add personal notes – all changes will be seen only by you.

Personal tabs can be accessed anytime from any device, even offline.
Learn more »
comments
print report bad tab
6 comments total. Showing first comments.
0 reply
zwhammack 179 Sep 24, 2014 04:51 PM

Voted 5* But you need to add the harmony in the intro!

0 reply
fyrefish 176 May 16, 2016 06:26 PM

Hey, I came across this awesome tab - and it looks like the harmony was never added - so I'll post here what I think it is.
Out of the 3 patterns - two are slightly different for the second guitar:

|----------0--------|
|------2-----2---2--|
|-2--4---4-----4----|
|-------------------|
|-------------------|
|-------------------|
|-------------------|

|----------0--------|
|------2-----2---2--|
|----4---4-----4----|
|--2----------------|
|-------------------|
|-------------------|
|-------------------|

|----------0--------|
|------2-----2---2--|
|----4---4-----4----|
|--0----------------|
|-------------------|
|-------------------|
|-------------------|

(The third is the same)

guest
You may want to rate the tab now too:
select rating
Wanna post a correction for this tab? Suggest correction