Oops, an error
Loading. Please wait.

Primal Directive Tab

version 1
version 1

Whole song

Interactive

7,053 views 3 this week
no commentswrite comment
1 2 3 4 5
please rate
add to favorites
launch autoscroll
font size
0
reset
how to read this tab
guitar tuner
Autoscroll
slow
fast
+/-
esc
set tempo
stop
Help us to improve Ultimate-Guitar.com Take our survey!
×
Author
Squifey 1,022

Tabbed by: Anthony Buck
Cover: http://www.youtube.com/watch?v=jdL1iZrVp2g

Legend:
H= Harmonic
h= Hammer on/off
p= Pull Off
*= Pinch Harmonic
/= Slide
.= Palm mute
t= Tap
"= Tremeolo Pick
~= Vibrato



A#|-------------------|
 F|-------------------|
C#|-------------5-----|
G#|--------/6---9--5H-|
D#|----3-----5--------|
G#|-0-04-0------------|

                                        Second ending
A#|-----------------------------------|-----------------------------------|
 F|-----------------------------------|-----------------------------------|
C#|-----------------------------------|----------7---10------11-----------|
G#|-5---4---2-1h2p1----4/5------------|----9-------6----9-------10---13*--|
D#|---1---1------------1/2-1----------|--8--------------------------------|
G#|-----------------00-----1--5310-3*-|------00-----------00--------------|
                    ..        ....           ..           ..

A#|----------------------------------------|
 F|----------------------------------------|
C#|----------------------------------------|
G#|4/5-----7/8-----10/11------13/14--------|
D#|1/2-----4/5------7/8-------10/11--------|
G#|----1h0-----4h0-------7h0---------10h0--|


A#|-------------------|
 F|-------------------|
C#|-------------------|
G#|-------------------|
D#|-00----------------|
G#|-11-1h0-0-1h0------|
    ..

A#|---------------10h9h0---|
 F|--------11-t19----------|
C#|------------------------|
G#|-5H-5H------------------|
D#|------------------------|
G#|------------------------|

A#|-------------------|
 F|-------------------|
C#|-------------------|
G#|-------------------|
D#|-00----------------|
G#|-11-1h0-0-1h0------|
    ..

A#|----------------------------------|
 F|----------------------------------|
C#|----------------------------------|
G#|-H5-H5----------------------------|
D#|-------00--00--00--00--00--00--00-|
G#|-------11--11--11--11--11--11--11-|
          ..  ..  ..  ..  ..  ..  ..

A#|--------------------------------------|----------|
 F|--------------------------------------|----------|
C#|------------------------------7---10--|-11---13*-|
G#|-------------------------9------6---9-|---10-----|
D#|-----------------------8--------------|----------|
G#|-/12-0-/11-0--57854754-----00---------|----------|
                 ........     ..
                       Clean Guitar
A#|--------------------5-----|
 F|--------------------6-----|
C#|--------------------7-----|
G#|--------------------8---3-|
D#|--------------------5---3-|
G#|-/12-0-/11-0-/13-0--5---3-|

A#|--------10---------------|
 F|--------11---------------|
C#|--------12---------------|
G#|-5------13-----5---------|
D#|-1--10--10--5--1--8---3--|
G#|-1--10--10--5--1--8---3--|

A#|--------------------------|
 F|--------------------------|
C#|--------------------------|
G#|--------------------------|
D#|--------------------------|
G#|-1"--10"--5"--1"--8"--3"--|

A#|------------------------------------------------------------------------------------|
 F|------------------------------------------------------------------------------------|
C#|------------------------------------------------------------------------------------|
G#|---8-5-0-5-8----5-1-0-1-5----8-5-0-5-8-----13-11-0-11-13----7-3-0-3-7----8-5-0-5-8--|
D#|-5------------1------------5------------11----------------3------------5------------|
G#|------------------------------------------------------------------------------------|

A#|----------------------------------------------------------|
 F|----------------------------------------------------------|
C#|----------------------------------------------------------|
G#|---5-1-0-1-5----8-5-0-5-8----13-11-0-11-13----7-3-0-3-7---|
D#|----------------------------------------------------------|
G#|-1------------5-----------11----------------3-------------|


A#|-------------------|
 F|-------------------|
C#|--------3----------|
G#|-5---1----5--------|
D#|-5---1------6-5~---|
G#|-5--01-------------|
       .

Clean Guitar w/delay
A#|---------------------------------------------------|
 F|-t15-11-0------------t15-11-t15-11-0----------t15--|
C#|-----------t14-10-0------------------t14-10-0------|
G#|---------------------------------------------------|
D#|---------------------------------------------------|
G#|---------------------------------------------------|


Guitar Lead
A#|-------------------------|
 F|-t15-11------------------|
C#|--------t14-10-----------|
G#|---------------t13/15----|
D#|-------------------------|
G#|-------------------------|

A#|----------------------------------------------|
 F|----------------------------------------------|
C#|-t15-12-0-----------t15-12-t15-12-0-----------|
G#|----------t15-12-0------------------t15-12-0--|
D#|----------------------------------------------|
G#|----------------------------------------------|

A#|---------------------------------------------------|
 F|-t15-11-0------------t15-11-t15-11-0----------t15--|
C#|-----------t14-10-0------------------t14-10-0------|
G#|---------------------------------------------------|
D#|---------------------------------------------------|
G#|---------------------------------------------------|


A#|-------------------|------------------|
 F|-------------------|------------------|
C#|--------3----------|-3-----------7----|
G#|-5---1----5--------|---5-------5------|
D#|-5---1------6-5~---|-----6-5----------|
G#|-5--01-------------|---------5--------|
       .                        Let last 3 notes ring out.


A#|--------------------------------|------------|
 F|--------------------------------|------------|
C#|--------------------------------|------------|
G#|--------------------------------|-------4----|
D#|--1------1------1------1------1-|--1------1--|
G#|-02-00--02-00--02-00--02--00-02-|-02-00------|
       ..     ..     ..      ..         ..
A#|-------------------|
 F|-------------------|
C#|-------------------|
G#|-------------------|
D#|--1-00-------------|
G#|-02-11-------------|
       ..


Suggest correction
What's this?
You can suggest a correction to this tab. Community and Mods will review your correction and vote to approve or reject it.
comments
We did not receive enough feedback on this tab! Please rate:
print report bad tab
1 2 3 4 5
guest
You may want to rate the tab now too:
select rating
Please do not post tabs as comments. Select "correction" instead!