Oops, an error
Loading. Please wait.

Headaches Tab

410 views 1 this week
no commentswrite comment
1 2 3 4 5
2 more votes to show rating
add to favorites
launch autoscroll
font size
0
reset
how to read this tab
guitar tuner
Autoscroll
slow
fast
+/-
esc
set tempo
stop
Help us to improve Ultimate-Guitar.com Take our survey!
×
Difficulty
novice
INTRO
e------------------------------------|   
B------------------------------------|     
G-4444444444444444-------------------|    
D-4444444444444444--2222222222222222-| X3  
A-2222222222222222--2222222222222222-|    
E-------------------0000000000000000-|     
(Now sometimes my head aches...)

e----------------------------------------------------------------------|
B----------------------------------------------------------------------|
G-------------------------------------44444444444444444444444444444444-|
D-5555555555555555--7777777777777777--44444444444444444444444444444444-|
A-5555555555555555--7777777777777777--22222222222222222222222222222222-|
E-3333333333333333--5555555555555555-----------------------------------|
(through today...)


VERSE
e---------------------------------------------------------------------------|
B---------------------------------------------------------------------------|
G--------------------------------------44444444-----------------------------|
D-2222222222222222--44444444444444444--44444444--44444444--2222222222222222-| X2       
A-2222222222222222--44444444444444444--22222222--44444444--2222222222222222-|
E-0000000000000000--22222222222222222------------22222222--0000000000000000-|
(Too early to be so cynical...)

e---------------------------|
B---------------------------|
G---------------------------|
D-4444444444444444444444444-|
A-4444444444444444444444444-|
E-2222222222222222222222222-|
(Losing hair...)


BRIDGE
e------------------------------------|
B------------------------------------|
G------------------------------------|
D------------BASS ONLY---------------| X3
A------------------------------------|
E------------------------------------|
(Now sometimes my head aches...)

e-3~---------------------------------|
B-0~---------------------------------|
G-0~---------------------------------|
D-0~----------------PICKSLIDE--------|
A-2~---------------------------------|
E-3~---------------------------------|
(through today...)


OUTRO
e------------------------------------|   
B------------------------------------|     
G-4444444444444444-------------------|    
D-4444444444444444--2222222222222222-| X3  
A-2222222222222222--2222222222222222-|    
E-------------------0000000000000000-|     
(Now sometimes my head aches...)

e---------------------------------------|
B---------------------------------------|
G-------------------------------------4-|
D-5555555555555555--7777777777777777--4-|
A-5555555555555555--7777777777777777--2-|
E-3333333333333333--5555555555555555----|
(through today...)


http://www.myspace.com/thecopyrights
Suggest correction
Give kudos to tab author, rate the tab!
1 2 3 4 5
comments
print report bad tab
guest
You may want to rate the tab now too:
select rating
Wanna post a correction for this tab? Suggest correction