Oops, an error
Loading. Please wait.

The Ceilings The Limit Tab

35 views 1 this week
no commentswrite comment
1 2 3 4 5
3 more votes to show rating
add to favorites
launch autoscroll
font size
0
reset
how to read this tab
guitar tuner
Autoscroll
slow
fast
+/-
esc
set tempo
stop
Help us to improve Ultimate-Guitar.com Take our survey!
×
Author
Intro
e-----------------------------------|
B-----------------------------------|
G--9--------------------------------|
D--9---7----------------------------|
A--7---7----------------------------|
E--0---5----------------------------|

Verse

e-----------------------------------|
B-----------------------------------|
G--9---------9--6--9----------------|
D--9--7--10--9--x--x----------------|
A--7--7--10--7--4--7----------------|
E-----5--8--------------------------|


Bridge
e-----------------------------------|
B-----------------------------------|
G-----------------------------------|
D--9--7--2--9--10-------------------|
A--9--7--2--9--10-------------------|
E--7--5--0--7--8--------------------|

Chorus

e--------------------------------------|
B--------------------------------------|
G--9--13--11--9------------------------|
D--x--x---x---x------------------------|
A--7--11--9---7------------------------|
E--------------------------------------|


e-----------------------------------|
B-----------------------------------|
G------------------------7--9-------|
D--2--7--2--7--2--7--10--7--9-------|
A--2--7--2--7--2--7--10--5--7-------|
E--0--5--0--5--0--5--8--------------|

Outro (With a smile on...)
e-----------------------------------|
B-----------------------------------|
G-----7--9--11--12--14--------------|
D-10--7--x--x---x---x---------------|
A-10--5--7--9---10--12--------------|
E-8---------------------------------|


e--------------------------------------|
B--------------------------------------|
G--9-----------------------------------|
D--9-----------------------------------|
A--7-----------------------------------|
E--0-----------------------------------|
Suggest correction
Give kudos to tab author, rate the tab!
1 2 3 4 5
comments
print report bad tab
guest
You may want to rate the tab now too:
select rating
Wanna post a correction for this tab? Suggest correction