Oops, an error
Loading. Please wait.

Untitled Waltz Tab

303 views 1 this week
no commentswrite comment
1 2 3 4 5
please rate
add to favorites
launch autoscroll
font size
0
reset
how to read this tab
guitar tuner
Tab Pro tools
  • play this tab
  • loop segment
  • change instrument
  • show fretboard
  • metronome
×
Best way to learn
"Untitled Waltz"
Autoscroll
slow
fast
+/-
esc
set tempo
stop
Contributor
Difficulty
novice
Song: Untitled Waltz
Band: Corb Lund Band
Album: Modern Pain
Label: Outside Music
Written By: Corb Lund
Tabbed/Chorded By: ultimatelefty

This is a good one off of Modern Pain(although all Corb Lund songs are awesome!),
so I decided to tab it out.
Please rate, comment, and enjoy!! 

Fill:
(This is played in various
parts of the song, listen
to figure out where)
e|-------|
B|-------|
G|-------|
D|-------|
A|-0-2-4-|
E|-------|

Ok, here we go...

Intro:

     D      D      D      D      D      D      D

e|---2-22---2-22---2-22---2-22---2-22---2-22---2-22--------|
B|---3-33---3-33---3-33---3-33---3-33---3-33---3-33--------|
G|---2-22---2-22---2-22---2-22---2-22---2-22---2-22--------|
D|-0------0------0-------------0------0------0-------------|
A|----------------------0---------------------------0-2-4--|
E|---------------------------------------------------------|


Verse 1:

D
Give me two dollars, I'll tell you a story
   G                   D
Of cigarette ashes and drink

It might entertain you or bore you or change you
         G                       D
It might not be what you want to think
                                      G
But it's about a good friend of mine, Hassle's his name
       A
He's a fellow you might even know
         D                         G
He looks fine on the outside, he's had lots of practice
         A                       D
But he's got no more luck of his own


Chorus:

             D        A               D           G
Why can't we all find enough peace of mind till tomorrow
                D                              A
That's what I'm wonderin', and that's what I'm hopin'
                 D
That's what I'll find
             D        A                  D                     G
Why can't we all find enough reasons for living life like we'd like to
                D                              A
That's what I'm wonderin', and that's what I'm hopin'
                 D
That's what I'll find


Verse 2:

      D
We're both young and troubled, we're both losin' time
          G                         D
And we're both close to not turnin' back

But he's further along and he's nearer the border
    G                          D
And closer to destruction than me
                                        G
And I can see what's been happenin' and what's going down
      A
And I think it's too late for his soul...(1,2,3,2)
      D                          G
And I think I could save mine if I'd cut it loose
    A                           D   
But so far I've just let things roll


Chorus:

             D        A               D           G
Why can't we all find enough peace of mind till tomorrow
                D                              A
That's what I'm wonderin', and that's what I'm hopin'
                 D
That's what I'll find
             D        A                  D                     G
Why can't we all find enough reasons for living life like we'd like to
                D                              A
That's what I'm wonderin', and that's what I'm hopin'
                 D
That's what I'll find 


Solo:
(I'm sorry if it isn't 100%, because some parts are hard to figure out, but 
either way you hopefully understand. Listen to the song for correct timing!)

e|-------------------------------------------------------------------------|
B|-------------------------------------------------------------------------|
G|------------------------------------------------------2-2-2--------------|
D|-----0-2-4--4h5p4p0--0-4-2---2-4-5-4-2-5-4--4-4-5-5-5-------5-5-5555-4-2-|
A|-4-4---------------------------------------------------------------------|
E|-------------------------------------------------------------------------|

e|---------------------------------------------------------------------------|
B|---------------------------------------------------------------------------|
G|---------------------------------------------------------------------------|
D|-4h5p4p0-0-2-2-4-5-4-4h5p4-4-2-2--2-2------------0------000-222-4-4444-4-0-|
A|--------------------------------------4-5-5/7-5----4444--------------------|
E|---------------------------------------------------------------------------|

e|----------------------------------------------------------------------------|
B|----------------------------------------------------------------------------|
G|----------------------------------------------------------------------------|
D|-0-0-0-0-2--22-22-4-5-2-4-44-55-77-77-55--55-4-2-4h5p4p0--00-22-4-5-4-4h5p4-|
A|----------------------------------------------------------------------------|
E|----------------------------------------------------------------------------|

e|------------------|
B|------------------|
G|------------------|
D|-4-22-------------|
A|------444-5-5/7-5-|
E|------------------|


Outro:

             D        A               D           G
Why can't we all find enough peace of mind till tomorrow
                D                              A
That's what I'm wonderin', and that's what I'm hopin'
                 D        G            
That's what I'll find

End On D

************************************

| /   slide up
| \   slide down
| h   hammer-on
| p   pull-off
| ~   vibrato
| +   harmonic
| x   Mute note
| b   Bend
| pb  Pre-bend
| br  Bend release
| pbr Pre-bend release
| brb Bend release bend

************************************
comments
We did not receive enough feedback on this tab! Please rate:
print report bad tab
1 2 3 4 5
I want to post or [tab]
guest
You may want to rate the tab now too:
select rating
Please do not post tabs as comments. Select "correction" instead!