Oops, an error
Loading. Please wait.

Flower Of Scotland tab

version 2
version 2

Whole song

6,639 views 9 this week
no commentswrite comment
1 2 3 4 5
x 5
add to favorites
×
Save as Personal and add changes to this tab that will be seen only by you. Learn more ›
×
You can save this tab as Personal to edit and correct it or add notes. All changes will be seen only by you. Learn more »
launch autoscroll
font size
0
reset
how to read this tab
guitar tuner
edit
Autoscroll
slow
fast
+/-
esc
set tempo
stop
Author
Difficulty
Since it's a Scottish song, it should have a drone instead of single notes. The drone is 
"D" string and the "A" at the end. It's very easy, but play it in front of your drunken 
and they'll be singing in no time...

  Oh Flower...    When will...
E-----------------------------------------|
B-----------------------------------------|
G-4-4-2-0-------------0-4-2---------------|
D-0-0-0-0-0-------0-0-0-0-0---------------|
A-----------------------------------------|
E-----------------------------------------|

  Your like...    That fought...
E-----------------------------------------|
B-----------------------------------------|
G-2-0-2-4---------4-5-4-5-7-0-------------|
D-0-0-0-0---------0-0-0-0-0-0-------------|
A-----------------------------------------|
E-----------------------------------------|

  And wee...          And stood...
E-----------------------------------------|
B-----------------------------------------|
G-0-2--2-2-2-0-2-4---4-4-2-0--------------|
D-0-0--0-0-0-0-0-0---0-0-0-0-0------------|
A-----------------------------------------|
E-----------------------------------------|

  And sent...         Tae think...
E-----------------------------------------|
B-----------------------------------------|
G-4-5-4-2-4-2-0-----------2-0-------------|
D-0-0-0-0-0-0-0-------4-4-0-0-------------|
A---------------------0-0-----------------|
E-----------------------------------------|

Any errors then mail them to me. thanks.

            
            
Suggest correction
Creating personal tab
Creating personal tab
You can edit any tab online and save it as your Personal.

You can edit, replace or remove any tab part or add personal notes – all changes will be seen only by you.

Personal tabs can be accessed anytime from any device, even offline.
Learn more »
comments
print report bad tab
guest
You may want to rate the tab now too:
select rating
Wanna post a correction for this tab? Suggest correction