Oops, an error
Loading. Please wait.

The Wild Mountain Thyme tab

121 views 18 this week
no commentswrite comment
1 2 3 4 5
2 more votes to show rating
add to favorites
×
Save as Personal and add changes to this tab that will be seen only by you. Learn more ›
×
You can save this tab as Personal to edit and correct it or add notes. All changes will be seen only by you. Learn more »
launch autoscroll
font size
0
reset
how to read this tab
guitar tuner
edit
Autoscroll
slow
fast
+/-
esc
set tempo
stop
About this tab version
The guitar arrangement Roy Williamson of The Corries plays. Was this info helpful? Yes No
[Verse 1]
                                       G                 G
e|----------------|----------------|----------------|----------------|
B|----------------|----------------|----------------|----------------|
G|----------------|----------------|----------------|----------------|
D|----------------|----------------|--0---0---0---0-|--0---0---0---0-|
A|----------------|----------------|----2-------2---|----2-------2---|
E|----------------|----------------|3-------3-------|3-------3-------|
                                                                 O the

   G       C         G                 C                 G
e|----------------|----------------|----------------|----------------|
B|----------------|----------------|----------------|----------------|
G|----------------|----------------|----------------|----------------|
D|--0---0---2---0-|--0---0-------0-|--2---2---2---0-|--0---0---0---0-|
A|----2---3---3---|----2-----0-2---|3---3---3---3---|----2-------2---|
E|3---------------|3-------3-------|----------------|3-------3-------|
  summer  time  has come       and  trees are        bloomin'    and the 
                                 the        sweet-ly

   C       G   F#/D  Em                C       Am        C
e|----------------|----------------|----------------|----------------|
B|----------------|----------------|----1-------1---|----1-----------|
G|----------------|----------------|--0---0---2---2-|--0---0---------|
D|--2---2---0---0-|--2---2---2---2-|----------------|----------2---0-|
A|3---3-----------|----2-------2---|3-------0-------|3-------3---3---|
E|--------3---2---|0-------0-------|----------------|----------------|
   wild   mountain thyme       grows        bloomin' heather     will ye
                                 around   the

[Chorus]
   G       C         G                 C                 G                 
e|----------------|----------------|----------------|----------------|
B|----------------|----------------|----------------|----------------|
G|----------------|----------------|----------------|----------------|
D|--0---0---2---0-|--0---0-------0-|--2---2---2---0-|--0---0---0---0-|
A|----2---3---3---|----2-----0-2---|3---3---3---3---|----2-------2---|
E|3---------------|3-------3-------|----------------|3-------3-------|
  go      lassie   go          and  all     go    to-gether      and pull
                                 we'll

   C       G   F#/D  Em                C       Am        C                  
e|----------------|----------------|----------------|----------------|
B|----------------|----------------|----1-------1---|----1-----------|
G|----------------|----------------|--0---0---2---2-|--0---0---------|
D|--2---2---0---0-|--2---2---2---2-|----------------|----------2---0-|
A|3---3-----------|----2-------2---|3-------0-------|3-------3---3---|
E|--------3---2---|0-------0-------|----------------|----------------|
  wild    mountain thyme       all around   bloomin' heather     will ye
                                          the

   G       C         G      
e|----------------|----------------|
B|----------------|----------------|
G|----------------|----------------|
D|--0---0---2---0-|--0---0---------|
A|----2---3---3---|----2-----------|
E|3---------------|3--------3------|
  go      lassie   go
Suggest correction
Creating personal tab
Creating personal tab
You can edit any tab online and save it as your Personal.

You can edit, replace or remove any tab part or add personal notes – all changes will be seen only by you.

Personal tabs can be accessed anytime from any device, even offline.
Learn more »
Give kudos to tab author, rate the tab!
1 2 3 4 5
comments
print report bad tab
guest
You may want to rate the tab now too:
select rating
Wanna post a correction for this tab? Suggest correction