Oops, an error
Loading. Please wait.

Only When I Sleep intro tab

version 1
version 1

Intro

Whole song

Interactive

5,678 views 3 this week
2 commentsread comments
1 2 3 4 5
1 last vote to show rating
add to favorites
×
Save as Personal and add changes to this tab that will be seen only by you. Learn more ›
×
You can save this tab as Personal to edit and correct it or add notes. All changes will be seen only by you. Learn more »
launch autoscroll
font size
0
reset
how to read this tab
guitar tuner
edit
Autoscroll
slow
fast
+/-
esc
set tempo
stop
Song:Only when i sleep
Artist:The Corrs
Tabber:the Eros™


This is only the guitar intro riff
|-------------------------------------------------|
|--------3--5--5/7--------------------------------|
|--4--6-------------------------------------------|
|-------------------------------------------------|x2
|-------------------------------------------------|
|-------------------------------------------------|

|---7--5------------------------------------------|
|---------7---5-------5---7-------0--3--5--7------|
|-----------------7-----------4---------------2---|
|-------------------------------------------------|
|-------------------------------------------------|
|-------------------------------------------------|

^_^ this is my first time to tab a song 
i think it is right...
by: don

            
            
Suggest correction
Creating personal tab
Creating personal tab
You can edit any tab online and save it as your Personal.

You can edit, replace or remove any tab part or add personal notes – all changes will be seen only by you.

Personal tabs can be accessed anytime from any device, even offline.
Learn more »
Give kudos to tab author, rate the tab!
1 2 3 4 5
comments
print report bad tab
2 comments total.
0 reply
mongo 10 Feb 22, 2006 09:55 AM

gr8 tab cheers

0 reply
Kasztan09 55 Dec 07, 2013 09:05 AM

Great tab but last sound is that:

|---7--5------------------------------------------------|
|---------7---5-------5---7-------0--3--5--7------------|
|-----------------7-----------4---------------2---2/4---|
|-------------------------------------------------------|
|-------------------------------------------------------|
|-------------------------------------------------------|

:D

guest
Wanna post a correction for this tab? Suggest correction