Oops, an error
Loading. Please wait.

Runaway Tab

version 1
version 1

Whole song

Interactive

36,881 views 6 this week
2 commentsread comments
1 2 3 4 5
please rate
add to favorites
launch autoscroll
font size
0
reset
how to read this tab
guitar tuner
Tab Pro tools
  • play this tab
  • loop segment
  • change instrument
  • show fretboard
  • metronome
×
Best way to learn
"Runaway"
Autoscroll
slow
fast
+/-
esc
set tempo
stop
Contributor
The Corrs
Runaway
1997
Submitted by: paramore_fans@yahoo.com

Key: F

Tuning: Standard EADGBe

Chords used:
F -   133211
Gm -  355333
Bb -  x13331
F/A - x032xx
C -   x32010
Dm -  xx0231


Intro: F-- x2

Violin:
e|-5--8--6-5-6-5-------------------------|
B|---------------8-6--6--6-5-6-5-6-5-6-8-|
G|---------------------------------------|
D|---------------------------------------|
A|---------------------------------------|
E|---------------------------------------|

e|-5--8--6-5-6-5------10--8--6-5---|
B|---------------8-6-------------6-|
G|---------------------------------|
D|---------------------------------|
A|---------------------------------|
E|---------------------------------|


verse 1:
F          Gm   Bb
  Say it's true
There's nothing
    F       Gm Bb
like me and you
F          Gm   Bb
  I'm not alone
           F/A        Gm  Bb
Tell me you   feel it too


Refrain 1:
            Dm      Bb
And I would run away
        Gm            C
I would run away yeah yeah
        Dm     Bb
I would runaway
        Gm           C  Bb
I would runaway with you.


Chorus:
       F Gm Bb
Cause I
have fallen in
F    Gm Bb    F
Love      with you
    Gm    Bb
No, never
               F/A
I'm never gonna   stop
Gm         Bb   C
falling in love with you


Post Chorus: F--

Violin:
e|-5--8--6-5-6-5------10--8--6-5---|
B|---------------8-6-------------6-|
G|---------------------------------|
D|---------------------------------|
A|---------------------------------|
E|---------------------------------|


Verse 2:
F           Gm   Bb
  Close the door
          F       Gm   Bb
Lay down upon the floor
    F        Gm   Bb
And by candlelight
make love to me
F             Gm   Bb
  through the night


Refrain 2:
             Dm      Bb
Cause I have run away
       Gm      C
I have runaway yeah yeah yeah
       Dm              Bb
I have runaway runaway
       Gm           C   Bb
I have runaway with you


(Repeat Chorus)


Interlude: F--Gm--Bb--C--

Violin: x2
e|-5--8--6-5-6-5-------------------------|
B|---------------8-6--6--6-5-6-5-6-5-6-8-|
G|---------------------------------------|
D|---------------------------------------|
A|---------------------------------------|
E|---------------------------------------|

e|-5--8--6-5-6-5------10--8--6-5---|
B|---------------8-6-------------6-|
G|---------------------------------|
D|---------------------------------|
A|---------------------------------|
E|---------------------------------|


Bridge:
     F  Gm Bb C
With you


(Repeat Refrain 1)


Breakdown: C-- x2


(Repeat Chorus)


Outro: F-Gm-Bb- until fade

Violin:
e|-5--8--6-5-7-5-------------------------|
B|---------------8-6--6--6-5-6-5-6-5-6-8-|
G|---------------------------------------|
D|---------------------------------------|
A|---------------------------------------|
E|---------------------------------------|

e|-5--8--6-5-7-5------10--8--6-5---|
B|---------------8-6-------------6-|
G|---------------------------------|
D|---------------------------------|
A|---------------------------------|
E|---------------------------------|
comments
We did not receive enough feedback on this tab! Please rate:
print report bad tab
1 2 3 4 5
2 comments total.
0 reply
bl00dy-dA3m0n wrote on December 31 2010, 01:18 am

Thanks for the tab!

0 reply
Sparky22 wrote on April 4 2011, 06:00 pm

The chords are right but Jim plays it with a capo at the 3rd fret. That makes the verse chords D Em G and so on...

I want to post or [tab]
guest
You may want to rate the tab now too:
select rating
Please do not post tabs as comments. Select "correction" instead!