Oops, an error
Loading. Please wait.
We have Chord Pro version of Runaway.
It's the closest thing you can get to the original song and it has interactive parts. Check out the tab »
×
82 views 1 this week
no commentswrite comment
1 2 3 4 5
3 more votes to show rating
add to favorites
×
Save as Personal and add changes to this tab that will be seen only by you. Learn more ›
×
You can save this tab as Personal to edit and correct it or add notes. All changes will be seen only by you. Learn more »
launch autoscroll
font size
0
reset
how to read this tab
guitar tuner
edit
Autoscroll
slow
fast
+/-
esc
set tempo
stop
Author
This tab is dedicated to my special someone named "chrizztine jaye"
I'm JAN DALE T. BENAVIDEZ
FROM OLONGAPO CITY
March 30,2016

CAPO ON 5TH FRET

[Intro]

e|--0-3--1p0h1p0-------------------------------------------------------------|
B|----------------3-1--1p0h1--1p0h1--1p0h1p0---------------------------------|
G|---------------------------------------------------------------------------|
D|---------------------------------------------------------------------------|
A|---------------------------------------------------------------------------|
E|---------------------------------------------------------------------------|

e|--0-3---1p0h1p0-------3/5-3---1p0------------------------------------------|
B|----------------3-1----------------1---------------------------------------|
G|---------------------------------------------------------------------------|
D|---------------------------------------------------------------------------|
A|---------------------------------------------------------------------------|
E|---------------------------------------------------------------------------|


[Verse]

e|---------------------------------------------------------------------------|
B|---1-0-------------------0--0h1--0--0h1--3---1-----(2x)--------------------|
G|-------0----|-0-0-|--0-------------------------0--|-0-0-|--0---------------|
D|------------|0-0-0|-0-0---------------------------|0-0-0|-0-0--------------|
A|---------------------------------------------------------------------------|
E|---------------------------------------------------------------------------|

e|---------------------------------------------------------------------------|
B|---0-0h1-0------------------0--0h1--0--0h1----3--1-------(2x)--------------|
G|------------0--|-0-0-|--0--------------------------0---|-0-0-|--0----------|
D|---------------|0-0-0|-0-0-----------------------------|0-0-0|-0-0---------|
A|---------------------------------------------------------------------------|
E|---------------------------------------------------------------------------|


[Chorus]

e|---------------------------------------------------------------------------|
B|-----------1-0-0h1--1---------1-0-0h1---3/5--3\1-1p0-----------------------|
G|---0-0-2---------------0-2-------------------------------------------------|
D|---------------------------------------------------------------------------|
A|---------------------------------------------------------------------------|
E|---------------------------------------------------------------------------|

e|---------------------------------------------------------------------------|
B|--------1-0h1-----------------------1-0h1---3-3----------------------------|
G|---0-2-----------------------0-2-------------------------------------------|
D|---------------------------------------------------------------------------|
A|---------------------------------------------------------------------------|
E|---------------------------------------------------------------------------|


e|----b3-1-0----------1-0---------------------------b3-1-0-------------------|
B|------------3-1--1------3-1--3-1--3-1---b1br0-------------3-1--------------|
G|--0--------------------------------------------0---------------------------|
D|---------------------------------------------------------------------------|
A|---------------------------------------------------------------------------|
E|---------------------------------------------------------------------------|


e|------1-0------------------------------------------------------------------|
B|---0-------3-1---3/5--3-1--0-0h1---0---------------------------------------|
G|---------------------------------------------------------------------------|
D|---------------------------------------------------------------------------|
A|---------------------------------------------------------------------------|
E|---------------------------------------------------------------------------|

e|--0--3---1p0h1p0---------------3/5---3----1p0------------------------------|
B|--1------------------3--1--------------------------1-----------------------|
G|---------------------------------------------------------------------------|
D|---------------------------------------------------------------------------|
A|---------------------------------------------------------------------------|
E|---------------------------------------------------------------------------|

    [Verse]

e|---------------------------------------------------------------------------|
B|---1-0-----------------1-0-0h1--3-1------(2x)------------------------------|
G|-------0-|-0-0-|--0-0---------------0--|-0-0-|-----------------------------|
D|---------|0-0-0|-0-0-------------------|0-0-0|-----------------------------|
A|---------------------------------------------------------------------------|
E|---------------------------------------------------------------------------|


e|---------------------------------------------------------------------------|
B|----0-1-0---------------0h1--0--0h1---3-1------(2x)------------------------|
G|--0-------0-|-0-0-|--0---------------------0-|-0-0-|-----------------------|
D|------------|0-0-0|--------------------------|0-0-0|-----------------------|
A|---------------------------------------------------------------------------|
E|---------------------------------------------------------------------------|


[Chorus]

e|---------------------------------------------------------------------------|
B|-----------1-0-0h1--1---------1-0-0h1---3/5--3\1-1p0-----------------------|
G|---0-0-2---------------0-2-------------------------------------------------|
D|---------------------------------------------------------------------------|
A|---------------------------------------------------------------------------|
E|---------------------------------------------------------------------------|

e|---------------------------------------------------------------------------|
B|--------1-0h1---3/5--33----------------1-0h1---3-3-------------------------|
G|---0-2-----------------------0-2-------------------------------------------|
D|---------------------------------------------------------------------------|
A|---------------------------------------------------------------------------|
E|---------------------------------------------------------------------------|


e|----b3-1-0----------1-0---------------------------b3-1-0-------------------|
B|------------3-1--1------3-1--3-1--3-1---b1br0-------------3-1--------------|
G|--0--------------------------------------------0---------------------------|
D|---------------------------------------------------------------------------|
A|---------------------------------------------------------------------------|
E|---------------------------------------------------------------------------|


e|------1-0------------------------------------------------------------------|
B|---0-------3-1---3/5--3-1--0-0h1---0---------------------------------------|
G|---------------------------------------------------------------------------|
D|---------------------------------------------------------------------------|
A|---------------------------------------------------------------------------|
E|---------------------------------------------------------------------------|


e|--0--3---1p0h1p0-----------------------------------------------------------|
B|--1------------------3--1-------1p0h1---1p0h1---1p0h1p0--------------------|
G|---------------------------------------------------------------------------|
D|---------------------------------------------------------------------------|
A|---------------------------------------------------------------------------|
E|---------------------------------------------------------------------------|

e|--0--3---1p0h1p0---------------3/5---3----1p0------------------------------|
B|---------------------3--1--------------------------1-----------------------|
G|---------------------------------------------------------------------------|
D|---------------------------------------------------------------------------|
A|---------------------------------------------------------------------------|
E|---------------------------------------------------------------------------|


e|----0--3---1p0h1p0---------------------------------------------------------|
B|--0-1-------------------3--1-------1p0h1---1p0h1---1p0h1p0-----------------|
G|---------------------------------------------------------------------------|
D|---------------------------------------------------------------------------|
A|---------------------------------------------------------------------------|
E|---------------------------------------------------------------------------|

e|---0--3---1p0h1p0---------------3/5---3----1p0-----------------------------|
B|-------------------3--1--------------------------1-------------------------|
G|---------------------------------------------------------------------------|
D|---------------------------------------------------------------------------|
A|---------------------------------------------------------------------------|
E|---------------------------------------------------------------------------|

[Chorus]

e|---------------------------------------------------------------------------|
B|-----------1-0-0h1--1---------1-0-0h1---3/5--3\1-1p0-----------------------|
G|---0-0-2---------------0-2-------------------------------------------------|
D|---------------------------------------------------------------------------|
A|---------------------------------------------------------------------------|
E|---------------------------------------------------------------------------|

e|---------------------------------------------------------------------------|
B|--------1-0h1-----------------------1-0h1---3-3----------------------------|
G|---0-2-----------------------0-2-------------------------------------------|
D|---------------------------------------------------------------------------|
A|---------------------------------------------------------------------------|
E|---------------------------------------------------------------------------|


e|----b3-1-0----------1-0---------------------------b3-1-0-------------------|
B|------------3-1--1------3-1--3-1--3-1---b1br0-------------3-1--------------|
G|--0--------------------------------------------0---------------------------|
D|---------------------------------------------------------------------------|
A|---------------------------------------------------------------------------|
E|---------------------------------------------------------------------------|


e|------1-0------------------------------------------------------------------|
B|---0-------3-1---3/5--3-1--0-0h1---0---------------------------------------|
G|---------------------------------------------------------------------------|
D|---------------------------------------------------------------------------|
A|---------------------------------------------------------------------------|
E|---------------------------------------------------------------------------|

e|--0--3---1p0h1p0-----------------------------------------------------------|
B|--1------------------3--1-------1p0h1---1p0h1---1p0h1p0--------------------|
G|---------------------------------------------------------------------------|
D|---------------------------------------------------------------------------|
A|---------------------------------------------------------------------------|
E|---------------------------------------------------------------------------|

e|--0--3---1p0h1p0---------------3/5---3----1p0------------------------------|
B|---------------------3--1--------------------------1-----------------------|
G|---------------------------------------------------------------------------|
D|---------------------------------------------------------------------------|
A|---------------------------------------------------------------------------|
E|---------------------------------------------------------------------------|



[Outro]

e|--0-3--1p0h1p0-------------------------------------------------------------|
B|----------------3-1--1p0h1--1p0h1--1p0h1p0---------------------------------|
G|---------------------------------------------------------------------------|
D|---------------------------------------------------------------------------|
A|---------------------------------------------------------------------------|
E|---------------------------------------------------------------------------|

e|--0-3---1p0h1p0-------3/5-3---1p0------------------------------------------|
B|----------------3-1----------------1---------------------------------------|
G|---------------------------------------------------------------------------|
D|---------------------------------------------------------------------------|
A|---------------------------------------------------------------------------|
E|---------------------------------------------------------------------------|


e|--0-3--1p0h1p0-------------------------------------------------------------|
B|----------------3-1--1p0h1--1p0h1--1p0h1p0---------------------------------|
G|---------------------------------------------------------------------------|
D|---------------------------------------------------------------------------|
A|---------------------------------------------------------------------------|
E|---------------------------------------------------------------------------|

e|--0-3---1p0h1p0-------3/5-3---1p0------------------------------------------|
B|----------------3-1----------------1---------------------------------------|
G|---------------------------------------------------------------------------|
D|---------------------------------------------------------------------------|
A|---------------------------------------------------------------------------|
E|---------------------------------------------------------------------------|


e|--0-3--1p0h1p0-------------------------------------------------------------|
B|----------------3-1--1p0h1--1p0h1--1p0h1p0---------------------------------|
G|---------------------------------------------------------------------------|
D|---------------------------------------------------------------------------|
A|---------------------------------------------------------------------------|
E|---------------------------------------------------------------------------|



            
            
Suggest correction
Creating personal tab
Creating personal tab
You can edit any tab online and save it as your Personal.

You can edit, replace or remove any tab part or add personal notes – all changes will be seen only by you.

Personal tabs can be accessed anytime from any device, even offline.
Learn more »
Give kudos to tab author, rate the tab!
1 2 3 4 5
comments
print report bad tab
guest
You may want to rate the tab now too:
select rating
Wanna post a correction for this tab? Suggest correction