Oops, an error
Loading. Please wait.

Black And Blue Tab

46 views 3 this week
no commentswrite comment
1 2 3 4 5
2 more votes to show rating
add to favorites
launch autoscroll
font size
0
reset
how to read this tab
guitar tuner
Autoscroll
slow
fast
+/-
esc
set tempo
stop
Help us to improve Ultimate-Guitar.com Take our survey!
×
Author
-------------------------------------------------------------------------------
                          BLACK & BLUE - COURTEENERS                           
-------------------------------------------------------------------------------
Black & Blue (Intro)
Courteeners
From the album: Concrete Love (2014)
Tabbed by egg-marteeni
25 October 2016

Tuning: Standard (EADGBe)

[INTRO]

e|-------8------8------8------8------8-----|------8-----8-----8-----8-----8----|
B|--10-----10-----10-----10-----10-----10--|--8-----8-----8-----8-----8-----8--|
G|-----------------------------------------|-----------------------------------|
D|-----------------------------------------|-----------------------------------|
A|-----------------------------------------|-----------------------------------|
E|-----------------------------------------|-----------------------------------|

e|-------8------8------8------8------8-----|------8-----8-----8-----8-----8----|
B|-----------------------------------------|--8-----8-----8-----8-----8-----8--|
G|--10-----10-----10-----10-----10-----10--|-----------------------------------|
D|-----------------------------------------|-----------------------------------|
A|-----------------------------------------|-----------------------------------|
E|-----------------------------------------|-----------------------------------|

e|-------8------8------8------8------8-----|------8-----8-----8-----8-----8----|
B|--10-----10-----10-----10-----10-----10--|--8-----8-----8-----8-----8-----8--|
G|-----------------------------------------|-----------------------------------|
D|-----------------------------------------|-----------------------------------|
A|-----------------------------------------|-----------------------------------|
E|-----------------------------------------|-----------------------------------|

e|-------8------8------8------8------8-----|------8-----8-----------8----------|
B|-----------------------------------------|--8-----8-----8---------------10---|
G|--10-----10-----10-----10-----10-----10--|------------------9----------------|
D|-----------------------------------------|-----------------------------------|
A|-----------------------------------------|-----------------------------------|
E|-----------------------------------------|-----------------------------------|
Suggest correction
Give kudos to tab author, rate the tab!
1 2 3 4 5
comments
print report bad tab
guest
You may want to rate the tab now too:
select rating
Wanna post a correction for this tab? Suggest correction