Oops, an error
Loading. Please wait.

Kings Of The New Road Bass Tab

182 views 1 this week
no commentswrite comment
1 2 3 4 5
3 more votes to show rating
add to favorites
launch autoscroll
font size
0
reset
guitar tuner
×
Best way to learn
"Kings Of The New Road"
Autoscroll
slow
fast
+/-
esc
set tempo
stop
Author
Difficulty
  follow
intermediate
This is my first tab.The whole song is pretty hard to get it at the beginning, but later 
is easier.
Any feedback my e-mail is : Diegosul2222@hotmail.com  (I'm from Latin America)

Standard Tuning:GDAE

Suggestions:

Beginners: You can practice this first.

(It may be a good idea to play the intro this way, it's your choice)
(fast)

(X)
G|-------------------------------------------------------------------|
D|-------------------------------------------------------------------|
A|-------------------3-5---------------------------------------------|
E|-0-0-3-0-0-3-0-0-3-------------------------------------------------|


After you practiced:(Fast)It may be confusing

(A)
G|-------------------------------------------------------------------|
D|-------------------------------------------------------------------|
A|-------------------3---5-------------------------------------------|
E|-0-303-0-303-0-303----0---0----------------------------------------|

(B)
G|-------------------------------------------------------------------|
D|-------------------------------------------------------------------|
A|-------------------3---5-------------------------------------------|
E|-0-0-3-0-0-3-0-0-3---0---0-----------------------------------------|


AFTER YOU PRACTICED THESE 3 PARTS:
The song is like this.

(0:13-Bass starts)-(B)6 Times or (X)2 Times then (B)4 Times
(0:36)(A) 1 Time then (B)1 Time - Liam Fray sings.
(0:44)(A) 1 Time then (B)1 Time
(0:52)(A) 1 Time then (B)1 Time
(1:00)(A) 1 Time then (B)1 Time
(1:07)(B) 4 Times
(1:22)(A) 1 Time then (B)1 Time
(1:30)(A) 1 Time then (B)1 Time
(1:38)(A) 1 Time then (B)1 Time
(1:46)(A) 1 Time then (B)1 Time
(1:53)(B) 4 Times
(2:09) No bass
(2:25)(B) 4 Times

(The end)(2:40)
G|-------------------------------------------------------------------|
D|-------------------------------------------------------------------|
A|-------------------------------------------------------------------|
E|-0~----------------------------------------------------------------|
Suggest correction
Give kudos to tab author, rate the tab!
1 2 3 4 5
comments
print report bad tab
guest
You may want to rate the tab now too:
select rating
Wanna post a correction for this tab? Suggest correction