Oops, an error
Loading. Please wait.

Lose Control Tab

73 views 6 this week
no commentswrite comment
1 2 3 4 5
3 more votes to show rating
add to favorites
launch autoscroll
font size
0
reset
how to read this tab
guitar tuner
Autoscroll
slow
fast
+/-
esc
set tempo
stop
Help us to improve Ultimate-Guitar.com Take our survey!
×
Author
-------------------------------------------------------------------------------
                          LOSE CONTROL - COURTEENERS                           
-------------------------------------------------------------------------------

Lose Control (Intro)
Courteeners
From the album: Anna (2013)
Tabbed by egg-marteeni
26 October 2016

Tuning: Standard (EADGBe)


[INTRO]

e|--19---19-19-19---19-19-19---19-19--|--19---17-17-17---17-17-17---17-17--|
B|------------------------------------|------------------------------------|
G|------------------------------------|------------------------------------|
D|------------------------------------|------------------------------------|
A|------------------------------------|------------------------------------|
E|------------------------------------|------------------------------------|

e|------------------------------------|--19-17-----------------------------|
B|--19---17---------------------------|--------19-17----17-----------------|
G|----------------18------------------|--------------18--------------------|
D|------------------------------------|------------------------------------|
A|------------------------------------|------------------------------------|
E|------------------------------------|------------------------------------|

e|--19-17-----------------------------|--19-17-----------------------------|
B|--------19-17----17-----------------|--------19-17----17-----------------|
G|--------------18--------------------|--------------18--------------------|
D|------------------------------------|------------------------------------|
A|------------------------------------|------------------------------------|
E|------------------------------------|------------------------------------|

e|------------------------------------|
B|-----17-------------17--------------|
G|--18----18-------18----18-----------|
D|------------------------------------|
A|------------------------------------|
E|------------------------------------|
Suggest correction
Give kudos to tab author, rate the tab!
1 2 3 4 5
comments
print report bad tab
guest
You may want to rate the tab now too:
select rating
Wanna post a correction for this tab? Suggest correction