Oops, an error
Loading. Please wait.

No One Will Ever Replace Us Chords

436 views 27 this week
no commentswrite comment
1 2 3 4 5
1 last vote to show rating
add to favorites
launch autoscroll
font size
0
reset
transpose
0
reset
display chords
guitar tuner
Autoscroll
slow
fast
+/-
esc
set tempo
stop
Help us to improve Ultimate-Guitar.com Take our survey!
×
Author
These are probably best played as power chords, though I can't quite tell if there's much of a guitar in this
or if it's just the bass.

If you listen carefully there are single notes played during the B and G that are played just once which are A
and F#. Listen to the song to get the timing right. 

Like I say this could essentially be the bass notes, but you'll at least have something to work from.

I've also included some of the other guitar parts, though the 7-8 and 3-3 in the intro I'm unsure over. 

The 14-15 and 12-12 parts are definitely right though.


e|--14-x8--12-x8--7-x8--3-x8-------------------------------------------------|
B|--15-----12-----8-----3----------------------------------------------------|
G|---------------------------------------------------------------------------|
D|---------------------------------------------------------------------------|
A|---------------------------------------------------------------------------|
E|---------------------------------------------------------------------------|

e|---10-10-9------10-9-------------------------------------------------------|
B|------------12--------12--10--12-10-12-------------------------------------|
G|---------------------------------------------------------------------------|
D|---------------------------------------------------------------------------|
A|---------------------------------------------------------------------------|
E|---------------------------------------------------------------------------|

e|---14-----12------10-----9-------------------------------------------------|
B|------15------14-----12----10--12------------------------------------------|
G|---------------------------------------------------------------------------|
D|---------------------------------------------------------------------------|
A|---------------------------------------------------------------------------|
E|---------------------------------------------------------------------------|


[Intro]
D B G

[Verse]
     D
Your Razor sharp wit and a festival braid

Little playsuit like a hand grenade
B             A B
Pull the pin, pull the pin
G             F# G
Pull the pin, pull the pin

[Verse 2]
         D
Had your hamstrings on my shoulders for LCD
D
I thought maybe it's a moment

Maybe we
B              A B
Stick with me, stick with me
G              F# G
Stick with me, stick with me

[Chorus]
You know that
A                           G#
No one will ever replace us
F#                               E F#
  You doubted it but i never did
A                             G#
  No one will ever replace us
F#                                E     
  We were the best thing that ever lived

F# B A B F#


[Verse 3]
       D
So you lost your mind
D
And the rest of us don't worry honey

It Happens to the best of us
B           A B    
You cannot comfort me
G           F# G
You cannot comfort me

[Verse 4]
          D 
Trying to find a gap through the crowds

With your hand in mine running under the clouds
B              A B
Stick with me, stick with me
G              F# G
Stick with me, stick with me

[Chorus]

You know that
A                           G#
No one will ever replace us
F#                               E F#
  You doubted it but i never did
A                             G#
  No one will ever replace us
F#                                E     
  We were the best thing that ever lived

F# B A B F#


[Bridge]

B                   G                   
We were then and we can be again
B                      G
Just say the words and I'll be by your side
                B
I'll be by your side
B F# B F#
D
Wouldn't it be nice if we were
Here longer than a weekend
B    A B
Line 3 (Don't know lyrics)
G
It'd be a fucking godsend 

[Chorus]
You know that
A                           G#
No one will ever replace us
F#                               E F#
  You doubted it but i never did
A                             G#
  No one will ever replace us
F#                                E     
  We were the best thing that ever lived

F# B A B F#

[Bridge]
B                   G                   
We were then and we can be again
B                      G
Just say the words and I'll be by your side
                B
I'll be by your side

B F# B F#
Suggest correction
Give kudos to tab author, rate the tab!
1 2 3 4 5
comments
print report bad tab
guest
You may want to rate the tab now too:
select rating
Wanna post a correction for this tab? Suggest correction