Oops, an error
Loading. Please wait.

Summer chords

version 1
version 1

Whole song

4,219 views 45 this week
1 commentread comment
1 2 3 4 5
x 4
add to favorites
×
Save as Personal and add changes to this tab that will be seen only by you. Learn more ›
×
You can save this tab as Personal to edit and correct it or add notes. All changes will be seen only by you. Learn more »
launch autoscroll
font size
0
reset
transpose
0
reset
display chords
guitar tuner
edit
Autoscroll
slow
fast
+/-
esc
set tempo
stop
Strumming
There is no strumming pattern for this song yet. and get +5 IQ
Ab Fm Eb Eb

Thanks Jamestudor97 for the intro riff.


G|-----------3-h-5---------------5-------3-h-5-------------|
D|--6--6--3--------1--1--3--1--6---6--3--------1--1--3--1--|
A|---------------------------------------------------------|
E|---------------------------------------------------------|

G|-----------3-h-5---------------5------3-h-5--------------|
D|--6--6--3--------1--1--3--1--6---6--3--------1--1--3--1--|
A|---------------------------------------------------------|
E|---------------------------------------------------------|

G|-----------3-h-5---------------5-------5--5--3--5--3-----|
D|--6--6--3--------1--1--3--1--6---6--3--------------------|
A|---------------------------------------------------------|
E|---------------------------------------------------------|

[Verse 1]
     Ab              Fm
So I said, I said what's your name
    Eb             Ab
And where d'ya wanna go from here
                      Fm                 Eb
She gimme a little grin and it went from ear to ear
   Ab          
She said this feels like
    Fm     Eb
Everything tonight
      Ab                     
Forget the breath of the rest of the room
   Fm                         Eb      
Now flog themselves to death and we'll be over the moon

[Chorus]
Ab              Eb
I don't have to go
               Cm
I could always stay
                  Bb
In this embrace forever
       Bb
Or at least one more day

Ab   Fm Eb
One more day

[Verse 2]
   Ab                       Fm    Eb
So I said, I said where do you belong 
               Ab
I saw that little twinkle in here eye
             Fm              Eb
She pulled me up and said dance to this song
         Ab
I said now this feels like
   Fm          Eb
Everything tonight
   Ab               
Forget the eyes of the monsters are green
          Fm            Eb
A collection of critters cutting a desperate scene

[Chorus]
Ab              Eb
I don't have to go
               Cm
I could always stay
                  Bb
In this embrace forever
       Bb
Or at least one more day

Ab              Eb
I don't have to go
               Cm
I could always stay
                  Bb
In this embrace forever
      Bb
Or at least one more day

Ab Fm Eb
One more day

            
            
Suggest correction
Creating personal tab
Creating personal tab
You can edit any tab online and save it as your Personal.

You can edit, replace or remove any tab part or add personal notes – all changes will be seen only by you.

Personal tabs can be accessed anytime from any device, even offline.
Learn more »
comments
print report bad tab
1 comment total.
-1 reply
egg-marteeni 822 Oct 17, 2015 11:07 AM

Thank you so much! Was so sad that only the bass tab existed, but I looked again and found this, it must have been a recent thing. Great tab!

guest
You may want to rate the tab now too:
select rating
Wanna post a correction for this tab? Suggest correction