Oops, an error
Loading. Please wait.

The 17Th chords

2,332 views 39 this week
12 commentsread comments
1 2 3 4 5
x 8
add to favorites
×
Save as Personal and add changes to this tab that will be seen only by you. Learn more ›
×
You can save this tab as Personal to edit and correct it or add notes. All changes will be seen only by you. Learn more »
launch autoscroll
font size
0
reset
transpose
0
reset
display chords
guitar tuner
edit
Autoscroll
slow
fast
+/-
esc
set tempo
stop
Strumming
There is no strumming pattern for this song yet. and get +5 IQ
The 17th
Courteeners
From the album: Mapping The Rendezvous (2016)
Tabbed by egg-marteeni
9th December 2016
Capo on 2nd

[Intro] 
Em G C Em D D C C

[Verse] 
Em         G             C          Em          D        C
  When you come home the neighbours look at you funny
                     Em         G    C             Em        D        C
  Thank someone, I dunno, maybe God,   that you're not new money
          Em       G    C              Em      D        C
  So it's up the stairs   and lock the world away
                Em        G    C         Em          D     C
  And then it's phone off        for the rest of the day

[Pre-Chorus] 
Em         G       C                Em        D
  The afternoon is peppered with regret
                                 C
  And all the things that you're trying to forget
            Em               G           C
  Well just know that you're not on your own
             Em          D         C
  No, you're not on your own

[Solo] 
      Em     Bm   Am  Em      Em    Am  C    Em
  e|----------------------|----------------------------------------|
  B|----------------------|----------------------------------------|
  G|----------------------|----------------------------------------|
  D|---------11---9---7---|---------9---12---11---11\\\------------|
  A|---7/9----------------|---7/9----------------------------------|
  E|----------------------|----------------------------------------|

      Em     Bm   Am  Em      Em    Am  C    Em
  e|----------------------|----------------------------------------|
  B|----------------------|----------------------------------------|
  G|----------------------|----------------------------------------|
  D|---------11---9---7---|---------9---12---11---11\\\------------|
  A|---7/9----------------|---7/9----------------------------------|
  E|----------------------|----------------------------------------|

[Verse] 
Em   G       C        Em             D        C
  Yellow Lambretta is knocked on its side
       Em             G        C     Em       D        C
  It's begging you to steal it   and go for a ride
Em            G             C               Em   D        C
  Just let me know and I'll meet you in the 17 - th
              Em       G         C            Em        D
  And you can bore me again with how much you love Halloween
               C
  How much you love Halloween

[Pre-Chorus] 
Em          G       C                Em        D
  Your afternoon is peppered with regret
                              C
  And all the things that you wanna forget
            Em               G           C
  Well just know that you're not on your own
             Em          D         C
  No, you're not on your own

[Verse] 
Em          G              C               Em             D
  If you've risen just the second that the sun goes down
                              C
  You wash away your sins and feel the pull of the town
  Em               G           C
  Know that you're not on your own
             Em          D         C
  No, you're not on your own

Em             G           C         Em             D
  Everyone can hear you but nobody's listening
                            C
  We've got another wedding and another christening
Em           G            C             Em             D
  We have to go to before we get to the summer
                                 C
  Might have to back door it and do another runner
Em     G         C       Em       D
  Like someone I used to know
                      C
  But please don't go there

[Chorus] 
                G
  Because we're having such a good time
  Em                        D              C
  Having such a good time
        G
  We're having such a good time
  Em                        D              C
  Having such a good time

[Break] 
Em G C Em D D C C

[Verse] 
      Em    G   C            Em           D           C
  The Irish bar   is kicking out for the first time
           Em       G       C        Em      D            C
  It seems nobody's playing Shanghai    like last night
           Em        G              C      Em      D           C
  So let's find that place with the pink neon sign
               Em        G       C            Em        D           C
  The one that points to you and says 'do you wanna be mine?'

[Main solo]
       Em    G            C     Em             D                  C
  e|---17-14-16-----------17-14-16---------|---17-14-16--------------14-16---------|
  B|------------17-17--------------17-17---|------------17-17-----17-------17-17---|
  G|---------------------------------------|---------------------------------------|
  D|---------------------------------------|---------------------------------------|
  A|---------------------------------------|---------------------------------------|
  E|---------------------------------------|---------------------------------------|

       Em    G            C     Em             D                  C
  e|---17-14-16-----------17-14-16---------|---17-14-16--------------14-16---------|
  B|------------17-17--------------17-17---|------------17-17-----17-------17-17---|
  G|---------------------------------------|---------------------------------------|
  D|---------------------------------------|---------------------------------------|
  A|---------------------------------------|---------------------------------------|
  E|---------------------------------------|---------------------------------------|

[Verse]
Em             G           C         Em             D
  Everyone can hear you but nobody's listening
                            C
  We've got another wedding and another christening
Em           G            C             Em             D
  We have to go to before we get to the summer
                                 C
  Might have to back door it and do another runner
Em     G         C       Em       D
  Like someone I used to know
                      C
  But please don't go there

[Outro]
                G
  Because we're having such a good time
  Em                        D              C
  Having such a good time
        G
  We're having such a good time
  Em                        D              C
  Having such a good time



************************************

| \  Slide down
| /  Slide up 

************************************
Suggest correction
Creating personal tab
Creating personal tab
You can edit any tab online and save it as your Personal.

You can edit, replace or remove any tab part or add personal notes – all changes will be seen only by you.

Personal tabs can be accessed anytime from any device, even offline.
Learn more »
comments
print report bad tab
12 comments total. Showing first comments.
0 reply
callum.jarvie.7 25 Dec 31, 2016 03:50 PM

Class Tab, been looking for this one in ages, gave it a 5 *

+1 reply
ethanhighflyingbirds 10 Feb 06, 2017 04:57 AM

The Courteeners never played this song with a capo so its actually:

A C#m D F#m E D and the chorus is A F#m E D

+1 reply
Bertie1997 21 Feb 09, 2017 02:45 PM

Hoe does Liam play it in the Absolute radio session? Acoustic chords, it doesn't sound right to me with the chords without a capo

guest
You may want to rate the tab now too:
select rating
Wanna post a correction for this tab? Suggest correction