Oops, an error
Loading. Please wait.

Yesterday Today And Probably Tomorrow tab

version 2
version 2

Whole song

11,340 views 33 this week
no commentswrite comment
1 2 3 4 5
x 8
add to favorites
×
Save as Personal and add changes to this tab that will be seen only by you. Learn more ›
×
You can save this tab as Personal to edit and correct it or add notes. All changes will be seen only by you. Learn more »
launch autoscroll
font size
0
reset
how to read this tab
guitar tuner
edit
Autoscroll
slow
fast
+/-
esc
set tempo
stop
The Courteeners - Yesterday, Today & Probably Tomorrow

Tabbed By - Joshua Rankin


Capo 5th!
Chords: C   - x32010   
        F   - xx3211
        G   - xx5433
        C/B - x20010
        Am7 - x02010
        G7  - 3x0010
        C*  - x32010h3 
        F*  - xx3211h3 
        G*  - xx5543h5 

Here's what i've got for the fingerpicking. Not too sure, but it'll do. Chords are defo right!

Intro:

  C*
e|-----0----3---0---3---0--------|
B|----1---1---1---1---1----------|
G|------------------------(x2)---|
D|--2----------------------------|
A|3------------------------------|
E|-------------------------------|

  F*                       G
e|------1---3---1---3--------------3---3-------|
B|----1---1---1---1---1----------3---3---3-----|
G|--2-------------------2-----4------------4---|
D|3-----------------------3/5------------------|
A|---------------------------------------------|
E|---------------------------------------------|  



Verse:

  C*                                                  
e|------0---3---0----------------|
B|----1---1---1----1-------------|
G|-------------------0--(x2)-----|
D|--2----------------------------|
A|3------------------------------|
E|-------------------------------|

  F*                  
e|------1---3---1----------------|
B|----1---1---1----1-------------|
G|--2----------------2-----------|
D|3------------------------------|
A|-------------------------------|
E|-------------------------------|

  G*                  
e|--------3---5---3--------------|
B|------3---3---3----------------|
G|----4--------------------------|
D|3/5----------------------------|
A|-------------------------------|
E|-------------------------------|

Chorus:

  C        C/B        Am7
e|----0---------0---------0---------0------|
B|------1---------1---------1---------1----|
G|----0---0-----0---0-----0---0-----0---0--|
D|--2---------0---------2---------2--------|
A|3---------2---------0---------0----------|
E|-----------------------------------------|

  F                    G
e|----1---------1-----------3---------3----|
B|----1-1-------1-1---------3-3-------3-3--|
G|--2-----2---2-----2-----4-----4---4-----4|
D|3---------3---------3/5---------5--------|
A|-----------------------------------------|
E|-----------------------------------------|

  C        C/B        Am7
e|----0---------0---------0---------0------|
B|------1---------1---------1---------1----|
G|----0---0-----0---0-----0---0-----0---0--|
D|--2---------0---------2---------2--------|
A|3---------2---------0---------0----------|
E|-----------------------------------------|

  F*                    G                 
e|------1---3---1--------------3---3-------|
B|----1---1---1----1---------3---3---3-----|
G|--2----------------2-----4-----------4---|
D|3--------------------3/5-----------------|
A|-----------------------------------------|
E|-----------------------------------------|  


Bridge:
(Not sure about this at all)

  Am7       G7        Am7       C
e|----------------------------------------|
B|------1---------1---------1---------1---|
G|----0---0-----0---0-----0---0-----0---0-|  (x3)
D|--2---------0---------2---------3-------|
A|0-------------------0---------2---------|
E|----------3-----------------------------|


e|------1---------1----3~-----------------|
B|----1---1-----1---1--3~-----------------|
G|--2---------2--------4~-----------------|  
D|3---------3----------5~-----------------|
A|----------------------------------------|
E|----------------------------------------|

Outro:

  C        C/B        Am7
e|----0---------0---------0---------0------|
B|------1---------1---------1---------1----|
G|----0---0-----0---0-----0---0-----0---0--|
D|--2---------0---------2---------2--------|
A|3---------2---------0---------0----------|
E|-----------------------------------------|

  F*                  
e|------1---3---1--------------3----5--3--0-0h1p0--0~---|
B|----1---1---1----1---------3---3-----------------1~---|
G|--2----------------2-----4-----------------------0~---|
D|3--------------------3/5-------------------------2~---|
A|-------------------------------------------------3~---|
E|------------------------------------------------------|

Intro
Verse
Chorus
Verse
Chorus 
Bridge 
Outro

Here's the chords n lyrics for you!

Intro:

C* F* G

Verse:

   C*
I'm not going to sit here and lie and list all the many ways
            F*                      G*  
About how I will supposedly love you till the end of days
          C*
Because I think that we both know in twenty-eight and a half years' time
F*                            G* 
That I won't be yours and you probably won't be mine


Chorus:
           
    C          C/B      Am
But yesterday, today and probably tomorrow
F                          G
This little one will find it hard to find sorrow
C          C/B      Am                    F*  G  
Yesterday, today and probably tomorrow

C* F* G

Verse:

C
Middleton to Withington and Middleton and back
   F                                    G
Is more than enough to make the average Middletonian crack
          C
So I will stand outside the Travelodge and bite my tongue
     F                      G
Your best friends look me up and down and I'll write the song


Chorus:
           
C          C/B      Am
Yesterday, today and probably tomorrow
F                          G
This little one will find it hard to find sorrow
C          C/B      Am                    F*  G  
Yesterday, today and probably tomorrow


Bridge:

Am           G7       Am      C
Will they be there on Tuesday night
Am          G7       Am              C
Running the bath and turning out the lights?
Am           G7                Am       C   F
Will they be there on Thursday afternoons To welcome you home from Euston platform 
G                               C*  F   G
With heart-shaped balloons? No


Outro:

C          C/B       Am                  F*  G
Yesterday, today and probably tomorrow




Please rate. Comments and Corrections welcomed! x

            
            
Suggest correction
Creating personal tab
Creating personal tab
You can edit any tab online and save it as your Personal.

You can edit, replace or remove any tab part or add personal notes – all changes will be seen only by you.

Personal tabs can be accessed anytime from any device, even offline.
Learn more »
comments
print report bad tab
guest
You may want to rate the tab now too:
select rating
Wanna post a correction for this tab? Suggest correction