Oops, an error
Loading. Please wait.

Gray Sunny Day Bass Tab

16 views 1 this week
no commentswrite comment
1 2 3 4 5
3 more votes to show rating
add to favorites
launch autoscroll
font size
0
reset
guitar tuner
Autoscroll
slow
fast
+/-
esc
set tempo
stop
Help us to improve Ultimate-Guitar.com Take our survey!
×
Author
Difficulty
novice
Tabbed by: 6METAL6BASSIST6
E-mail: petergriffinav@gmail.com

Tuning: EADG

G|------------------------------------------------------------------------------------------------|
D|----------------4-----------------------4-------------------------------------------------------|
A|5---------------------5-3---------------------3-2---------------5-----2-----------------2-4-----|
E|------------------------------------------------------------------------5---------5-----------5-|

0:08

G|------------------------------------------------------------------------------------------------|
D|----------------------5-3---------------------7-5---------------------6-7---------------------2-| x2
A|5----------------------------------------------------------------------------------------2-4----|
E|----------------------------------------------------------------------------------5-------------|

0:22

G|----------7-----5-----------------4-----------------------9-------------------------------------|
D|----------------------4-5---------------5-----4-----------------9-----6-7---------------------2-|
A|5-----------------------------------------------7---------------------------------------2-4-----|
E|----------------------------------------------------------------------------------5-------------|

G|----------3-----4-6-----4---------4-------------------------------------------------------------|
D|4---------------------4-------------7---------7-5-----------------------------------------------|
A|----------------------------------------------------------------------7-----------7-----------5-|
E|----------------------------------------------------------3-------------------------------------|

G|------------------------------------------------------------------------------------------------|
D|----------------4-----------------------4-------------------------------------------------------|
A|----------------------5-5-----3---------------3-3-----2---------5-----2-----------------2-4-----|
E|------------------------------------------------------------------------5---------5-------------|

0:45

G|------------------------------------------------------------------------------------------------|
D|----------------------5-3---------------3-----7-5---------------5-----6-7---------------------2-| x2
A|5---------------5------------------------------------------------------------------------2-4----|
E|----------------------------------------------------------------------------------5-------------|

0:59

G|----------7-----5-----------------4-----------------------9-------------------------------------|
D|----------------------4-5---------------5-----4-----------------9-----6-7---------------------2-|
A|5-----------------------------------------------7---------------------------------------2-4-----|
E|----------------------------------------------------------------------------------5-------------|

G|----------3-----4-6-----4---------4-------------------------------------------------------------|
D|4---------------------4-------------7---------7-5-----------------------------------------------|
A|----------------------------------------------------------------------7-----------7-------------|
E|----------------------------------------------------------3-----------------------------------5-|

G|------------------------------------------------------------------------|
D|----------------------------------7-------------------------------------|
A|----------------------------------------7-----------------------2-4-----|
E|----------5-----------5-----------------------5-5---------5-------------|

1:19

G|------------------------------------------------------------------------------------------------|
D|----------------------5-3---------------------3-5---------5-----------5-7-----------------------|
A|5---------5-5---------------------------3-------------------5---------------------------2-4-----|
E|----------------------------------5-----------------------------------------------5-------------|

G|------------------------------------------------------------------------------------------------|
D|----------------------5-3---------------------3-5---------5-----------5-7---------------------2-|
A|5---------5-5---------------------------3-------------------5---------------------------2-4-----|
E|----------------------------------5-----------------------------------------------5-------------|

1:33

G|------------------------------------------------------------------------------------------------|
D|----------------------4-5---------------------4-----------------------5-7---------------------5-|
A|5-----------------------------------------------7-----------------------------------------------|
E|------------------------------------------------------------------------------------------------|

G|------------------------------------------------------------------------------------------------|
D|4-----------------------------------------------------------------------------------------------|
A|------------------------2---------------------------------------------7-----------7-------------|
E|----------------------5-------------5-----------3---------3-----------------------------------5-|

G|------------------------|
D|------------------------|
A|----------------------5-|
E|----------5-------------|

G|------------------------------------------------------------------------------------------------|
D|----------------4-----------------------4-----------------------------------------------------2-|
A|----------------------5-3---------------------3-2---------------5-----2-----------------2-4-----|
E|------------------------------------------------------------------------5---------5-------------|

1:57

G|------------------------------------------------------------------------------------------------|
D|------------------------------------------------------------------------------------------------|
A|5---------5-5---------5-3---------3-3---------3-2---------2-2---------2-----------------2-4-----|
E|------------------------------------------------------------------------5---------5-------------|

G|------------------------------------------------------------------------------------------------|
D|----------------------------------------------------------------------------------------------2-|
A|5---------5-5---------5-3---------3-3---------3-2---------2-2---------2-----------------2-4-----|
E|------------------------------------------------------------------------5---------5-------------|

G|------------------------------------------------------------------------------------------------|
D|----------------4-----------------------4-------------------------------------------------------|
A|5---------------------5-3---------------------3-2---------------5-----2-----------------2-4-----|
E|------------------------------------------------------------------------5---------5-------------|

2:19

G|------------------------------------------------------------------------------------------------|
D|----------------------------------5-----------------------------------------------5-------------|
A|5---------5-----5-----5-3---------------5-3---3-5---------5-----5-----3-5---------------5-3---3-|
E|------------------------------------------------------------------------------------------------|

G|------------------------------------------------------------------------------------------------|
D|------------------------------------------------------------------------------------------------|
A|5-----------------------------------------------------------------------------------------------|
E|------------------------------------------------------------------------------------------------|

G|------------------------------------------------------------------------------------------------|
D|----------------------------------5-----------------------------------------------5-------------|  until
A|5---------5-----5-----5-3---------------5-3---3-5---------5-----5-----3-5---------------5-3---3-| fadeout.
E|------------------------------------------------------------------------------------------------|
Suggest correction
Give kudos to tab author, rate the tab!
1 2 3 4 5
comments
print report bad tab
guest
You may want to rate the tab now too:
select rating
Wanna post a correction for this tab? Suggest correction