Oops, an error
Loading. Please wait.

Bikini Girls With Machine Guns Bass Tab

97 views 6 this week
no commentswrite comment
1 2 3 4 5
3 more votes to show rating
add to favorites
launch autoscroll
font size
0
reset
guitar tuner
Autoscroll
slow
fast
+/-
esc
set tempo
stop
Help us to improve Ultimate-Guitar.com Take our survey!
×
Author
Difficulty
intermediate
Intro
G|-----------------------------------------------------------------------------------|
D|-------------------------------7-6--5-4-5----7-6--5-4-5---7-6--5-4-5----7-6--5-4-5-|
A|-----------------------------------------------------------------------------------|
E|-----------------------------5-------------5-------------5------------5------------|


Verse ("Well I Been A Drag Racer On LSD...")                                      
G|--------------------------------------------------------|
D|---7-6--5-4-5----7-6--5-4-5----7-6--5-4-5----7-6--5-4-5-|
A|--------------------------------------------------------|
E|-5-------------5-------------5-------------5------------|

G|--------------------------------------------------------|
D|---7-6--5-4-5----7-6--5-4-5----7-6--5-4-5----7-6--5-4-5-|
A|--------------------------------------------------------|
E|-5-------------5-------------5-------------5------------|


Chorus ("Bikini Girls With Machine Guns...
G|-----------------------------------------------------------------|
D|---4-5-6---4-5-6---4-5-6---4-5-6---------------------------------|
A|-5-------5-------5-------5---------4-5-6---4-5-6---4-5-6---4-5-6-|
E|---------------------------------5-------5-------5-------5-------|

G|-----------------------------------------------------------------|
D|---4-5-6---4-5-6---4-5-6---4-5-6---6-7-8---6-7-8---6-7-8---6-7-8-|
A|-5-------5-------5-------5-------7-------7-------7-------7-------|
E|-----------------------------------------------------------------|


Verse ("Well I Savored Many Foreign Kinds Of Delicacies...")                                     
G|--------------------------------------------------------|
D|---7-6--5-4-5----7-6--5-4-5----7-6--5-4-5----7-6--5-4-5-|
A|--------------------------------------------------------|
E|-5-------------5-------------5-------------5------------|

G|--------------------------------------------------------|
D|---7-6--5-4-5----7-6--5-4-5----7-6--5-4-5----7-6--5-4-5-|
A|--------------------------------------------------------|
E|-5-------------5-------------5-------------5------------|


Chorus ("Bikini Girls With Machine Guns...
G|-----------------------------------------------------------------|
D|---4-5-6---4-5-6---4-5-6---4-5-6---------------------------------|
A|-5-------5-------5-------5---------4-5-6---4-5-6---4-5-6---4-5-6-|
E|---------------------------------5-------5-------5-------5-------|

G|-----------------------------------------------------------------|
D|---4-5-6---4-5-6---4-5-6---4-5-6---6-7-8---6-7-8---6-7-8---6-7-8-|
A|-5-------5-------5-------5-------7-------7-------7-------7-------|
E|-----------------------------------------------------------------|


Solo
G|---------------------------------|---------------------------------|
D|---------------------------------|---------------------------------|
A|---4-5-6---4-5-6---4-5-6---4-5-6-|---4-5-6---4-5-6---4-5-6---4-5-6-|
E|-5-------5-------5-------5-------|-5-------5-------5-------5-------|

G|---------------------------------|---------------------------------|
D|---4-5-6---4-5-6---4-5-6---4-5-6-|---------------------------------|
A|-5-------5-------5-------5-------|---4-5-6---4-5-6---4-5-6---4-5-6-|
E|---------------------------------|-5-------5-------5-------5-------|

G|---------------------------------|----------------------------------|
D|---6-7-8---6-7-8---4-5-6---4-5-6-|--------------------6-7-8---6-7-8-|
A|-7-------7-------5-------5-------|---4-5-6---4-5-6--7-------7-------|
E|---------------------------------|-5-------5------------------------|


Verse ("Well They Say That Virtue Is It's Own Reward...")                                     
G|--------------------------------------------------------|
D|---7-6--5-4-5----7-6--5-4-5----7-6--5-4-5----7-6--5-4-5-|
A|--------------------------------------------------------|
E|-5-------------5-------------5-------------5------------|

G|--------------------------------------------------------|
D|---7-6--5-4-5----7-6--5-4-5----7-6--5-4-5----7-6--5-4-5-|
A|--------------------------------------------------------|
E|-5-------------5-------------5-------------5------------|


Chorus ("Bikini Girls With Machine Guns...
G|-----------------------------------------------------------------|
D|---4-5-6---4-5-6---4-5-6---4-5-6---------------------------------|
A|-5-------5-------5-------5---------4-5-6---4-5-6---4-5-6---4-5-6-|
E|---------------------------------5-------5-------5-------5-------|

G|-----------------------------------------------------------------|
D|---4-5-6---4-5-6---4-5-6---4-5-6---6-7-8---6-7-8---6-7-8---6-7-8-|
A|-5-------5-------5-------5-------7-------7-------7-------7-------|
E|-----------------------------------------------------------------|

Outro ("Bikini Girls With- Kini Girls With...")
G|-----------------------------------------------------------------|
D|-----------------------------------------------------------------|
A|-----------------------------------------------------------------|
E|-----------------------------------------------------------------|

("Bikini Girls With Machine Guns...)
G|-----------------------------------------------------------------|
D|---4-5-6---4-5-6---4-5-6---4-5-6---------------------------------|
A|-5-------5-------5-------5---------4-5-6---4-5-6---4-5-6---4-5-6-|
E|---------------------------------5-------5-------5-------5-------|

("Bikini Girls With Machine Guns...)
G|-----------------------------------------------------------------|
D|---4-5-6---4-5-6---4-5-6---4-5-6---------------------------------|
A|-5-------5-------5-------5---------4-5-6---4-5-6---4-5-6---4-5-6-|
E|---------------------------------5-------5-------5-------5-------|

("This Stuff Will Kill You...")
G|-----------------------------------------------------------------|
D|---4-5-6---4-5-6---4-5-6---4-5-6---6-7-8---6-7-8---6-7-8---6-7-8-|
A|-5-------5-------5-------5-------7-------7-------7-------7-------|
E|-----------------------------------------------------------------|
                             
G|--------------------------------------------------------|-------------------|
D|---7-6--5-4-5----7-6--5-4-5----7-6--5-4-5----7-6--5-4-5-|-------------------|
A|--------------------------------------------------------|-0-----------------|
E|-5-------------5-------------5-------------5------------|-------------------|
Suggest correction
Give kudos to tab author, rate the tab!
1 2 3 4 5
comments
print report bad tab
guest
You may want to rate the tab now too:
select rating
Wanna post a correction for this tab? Suggest correction