Oops, an error
Loading. Please wait.

Muleskinner Blues Chords

46 views 1 this week
no commentswrite comment
1 2 3 4 5
3 more votes to show rating
add to favorites
launch autoscroll
font size
0
reset
transpose
0
reset
simplify chords
display chords
guitar tuner
Autoscroll
slow
fast
+/-
esc
set tempo
stop
Help us to improve Ultimate-Guitar.com Take our survey!
×
Author
Difficulty
[Intro]
E
       Good morning Captain
G#5 E
       Good morning to you 
E
Ah ha ha ha ha haaa


[Verse 1]
           A
Uh, do you need another mule skinner
                     E
Down on your new mud run
E
Ha haaa ha ha ha ha ha haaa
       B                 A#5 A
Eh hey-hey heee, He hoo, ee  ee 
A
Ha ha ha ha haaa
E                  E                   E
Ah ha ha ha ha ha, ah ha ha ha ha haaa


[Verse 2]
E
Well I'm an old mule skinner, hey haw
E
Down from ol Ken-tuh-huh-huh-huh-huh-huh-huh-huuuh
          A
And I can make any mule listen         
A
Are you listenin' 
A                      E
Or I won't accept your pay
E
Hey hey, Ha ha ha ha ha ha
        B               A#5 A
Yeh hey-hey heee ee haw
A
Ah ha ha ha haaa
E                  E                   
Ah ha ha ha ha ha, ah ha ha ha ha ha


[Solo]

e|-12-12--0-0--12-12--0-0--12-12-11-10-9--5--5--8-7-5-|
B|-12-12--0-0--12-12--0-0--12-12-11-10-9--5--5--8-7-5-|
G|----------------------------------------------------|
D|----------------------------------------------------|
A|----------------------------------------------------|
E|----------------------------------------------------|

e|--0--0--3-2-0---7-7-9-7---5-5-7-5---0-3-0-3-0-3-0---|
B|--0--0--3-2-0---7-7-9-7---5-5-7-5---0-3-0-3-0-3-0---|
G|----------------------------------------------------|
D|----------------------------------------------------|
A|----------------------------------------------------|
E|----------------------------------------------------|

e|-12-12-0-0--12-12-0-0--12-12--12-12-12--5--5--8-7-5-|
B|-12-12-0-0--12-12-0-0--12-12--12-12-12--5--5--8-7-5-| 
G|----------------------------------------------------|
D|----------------------------------------------------|
A|----------------------------------------------------|
E|----------------------------------------------------|

e|--0--0--3-2-0---7-7-9-7---5-5-7-5---0-3-0-3-0-3-0-0-|
B|--0--0--3-2-0---7-7-9-7---5-5-7-5---0-3-0-3-0-3-0-0-|
G|----------------------------------------------------|
D|----------------------------------------------------|
A|----------------------------------------------------|
E|----------------------------------------------------|


[Verse 3]
N.C.
Hey, little ol water boy,
N.C.
Where's that water boy man?
N.C.
Bring that mop bucket now
E
Wah wah ha ha ha ha ha haa
A
And if you don't like your j-ob
                         E
Then put that mop bucket down 
E
Ha ha, Ha ha ha ha ha ha
        B               A#5 A
Yeh hey-hey heee ee haw ee  ee
A
Ah ha ha ha haaa
E                  E                               
Ah ha ha ha ha ha, ah ha ha ha ha ha
E
   Cha cha cha, ha!
Suggest correction
Give kudos to tab author, rate the tab!
1 2 3 4 5
comments
print report bad tab
guest
You may want to rate the tab now too:
select rating
Wanna post a correction for this tab? Suggest correction