Oops, an error
Loading. Please wait.

Rockin Bones Tab

91 views 15 this week
no commentswrite comment
1 2 3 4 5
3 more votes to show rating
add to favorites
launch autoscroll
font size
0
reset
how to read this tab
guitar tuner
Autoscroll
slow
fast
+/-
esc
set tempo
stop
Help us to improve Ultimate-Guitar.com Take our survey!
×
Author
Difficulty
[Intro]
  N.C.                          B                            A
e|----------------------------|----------------------------|----------------------------|
B|----------------------------|----------------------------|----------------------------|
G|----------------------------|-4--4--4-4-4---4--4--4-4-4--|-2--2--2-2-2---2--2--2-2-2--|
D|----------------------------|-4--4--4-4-4---4--4--4-4-4--|-2--2--2-2-2---2--2--2-2-2--|
A|----------------------------|-2--2--2-2-2---2--2--2-2-2--|-0--0--0-0-0---0--0--0-0-0--|
E|----------------------------|----------------------------|----------------------------|

   E
e|----------------------------|
B|----------------------------|
G|----------------------------|
D|----------------------------|
A|------1-2------1-2------1-2-|
E|-0--0-----0--0-----0--0-----|
                                          

[Chorus]
   E                                    
e|--------------------------------------------------------|----------------------------|
B|--------------------------------------------------------|----------------------------|
G|--------------------------------------------------------|----------------------------|
D|--------------------------------------------------------|----------------------------|
A|------1-2------1-2------1-2-------1-2------1-2------1-2-|------1-2------1-2------1-2-|
E|-0--0-----0--0-----0--0------0--0-----0--0-----0--0-----|-0--0-----0--0-----0--0-----|
       Roll on (roll on)                     Rock on (rock  on)                    Raw              

   A                                       E
e|-----------------------------|--------------------------------------------------------|
B|-----------------------------|--------------------------------------------------------|
G|-----------------------------|--------------------------------------------------------|
D|-------1-2------1-2------1-2-|-------1-2----------------------------------------------|
A|--0--0-----0--0-----0--0-----|--0--0------------1-2--------1-2--------1-2-------1-2---|
E|-----------------------------|-----------0----0-----0----0-----0----0-----0---0-------|
  bones(raw bones)            Well, there's still a lot of rhythm in these Rockin' bones


[Verse]
                         E
e|---------------------------------------------------------------------------------------|
B|---------------------------------------------------------------------------------------|
G|---------------------------------------------------------------------------------------|
D|---------------------------------------------------------------------------------------|
A|---------------1---2-------------------------------------------------------------------|
E|-------0---0-----------0---------------------------------------------------------------|
             I   wanna   leave   a   happy   memory   when   I   go    
   
                         E          
e|---------------------------------------------------------------------------------------|
B|---------------------------------------------------------------------------------------|
G|---------------------------------------------------------------------------------------|
D|---------------------------------------------------------------------------------------|
A|---------------1---2-------------------------------------------------------------------|
E|-------0---0-----------0---------------------------------------------------------------|
             I  wanna  leave  something  to  let  the  whole  world  know

                         A
e|---------------------------------------------------------------------------------------|
B|---------------------------------------------------------------------------------------|
G|---------------------------------------------------------------------------------------|
D|---------------------------------------------------------------------------------------|
A|---------------1---2---0---------------------------------------------------------------|
E|-------0---0---------------------------------------------------------------------------|
             That  the  rock 'n' roll  Daddy  has  a  done  passed  on
  
                         E
e|---------------------------------------------------------------------------------------|
B|---------------------------------------------------------------------------------------|
G|---------------------------------------------------------------------------------------|
D|---------------1---2-------------------------------------------------------------------|
A|-------0---0---------------------------------------------------------------------------|
E|-----------------------0---------------------------------------------------------------| 
             But   my   bones   will   keep  rockin'  long   after  I've  gone


[Chorus]
   E                                    
e|--------------------------------------------------------|----------------------------|
B|--------------------------------------------------------|----------------------------|
G|--------------------------------------------------------|----------------------------|
D|--------------------------------------------------------|----------------------------|
A|------1-2------1-2------1-2-------1-2------1-2------1-2-|------1-2------1-2------1-2-|
E|-0--0-----0--0-----0--0------0--0-----0--0-----0--0-----|-0--0-----0--0-----0--0-----|
       Roll on (roll on)                    Rock on (rock  on)                    Raw              

   A                                       E
e|-----------------------------|--------------------------------------------------------|
B|-----------------------------|--------------------------------------------------------|
G|-----------------------------|--------------------------------------------------------|
D|-------1-2------1-2------1-2-|-------1-2----------------------------------------------|
A|--0--0-----0--0-----0--0-----|--0--0------------1-2--------1-2--------1-2-------1-2---|
E|-----------------------------|-----------0----0-----0----0-----0----0-----0---0-------|
  bones(raw bones)            Well, there's still a lot of rhythm in these Rockin' bones


[Instrumental]
     B                   A                     E
e|-------------------------------------------|-------------------------------------------|
B|-------------------------------------------|-------------------------------------------|
G|-------------------------------------------|-------------------------------------------|
D|-------------------------------------------|-------------------------------------------|
A|---2-2--5-5--2-2--5-5--0-0--3-3--0-0--3-3--|-------------------------------------------|
E|-------------------------------------------|--0----------------------------------------|


[Verse]
                         E
e|---------------------------------------------------------------------------------------|
B|---------------------------------------------------------------------------------------|
G|---------------------------------------------------------------------------------------|
D|---------------------------------------------------------------------------------------|
A|---------------1---2-------------------------------------------------------------------|
E|-------0---0-----------0---------------------------------------------------------------|
             Well,  when  I  die  don't  you  bury  me  at  all  
             
                         E
e|---------------------------------------------------------------------------------------|
B|---------------------------------------------------------------------------------------|
G|---------------------------------------------------------------------------------------|
D|---------------------------------------------------------------------------------------|
A|---------------1---2-------------------------------------------------------------------|
E|-------0---0-----------0---------------------------------------------------------------|
             Just   nail   my   bones   up   on   the   wall

                         A
e|---------------------------------------------------------------------------------------|
B|---------------------------------------------------------------------------------------|
G|---------------------------------------------------------------------------------------|
D|---------------------------------------------------------------------------------------|
A|---------------1---2---0---------------------------------------------------------------|
E|-------0---0---------------------------------------------------------------------------|
             Beneath  these  bones  let  these  words  be  seen
  
                         E
e|---------------------------------------------------------------------------------------|
B|---------------------------------------------------------------------------------------|
G|---------------------------------------------------------------------------------------|
D|---------------1---2-------------------------------------------------------------------|
A|-------0---0---------------------------------------------------------------------------|
E|-----------------------0---------------------------------------------------------------| 
             This  is  the  bloody  gears  of  a  boppin'  machine


[Chorus]
   E                                    
e|--------------------------------------------------------|----------------------------|
B|--------------------------------------------------------|----------------------------|
G|--------------------------------------------------------|----------------------------|
D|--------------------------------------------------------|----------------------------|
A|------1-2------1-2------1-2-------1-2------1-2------1-2-|------1-2------1-2------1-2-|
E|-0--0-----0--0-----0--0------0--0-----0--0-----0--0-----|-0--0-----0--0-----0--0-----|
       Roll on (roll on)                    Rock on (rock  on)                    Raw              

   A                                       E
e|-----------------------------|--------------------------------------------------------|
B|-----------------------------|--------------------------------------------------------|
G|-----------------------------|--------------------------------------------------------|
D|-------1-2------1-2------1-2-|-------1-2----------------------------------------------|
A|--0--0-----0--0-----0--0-----|--0--0------------1-2--------1-2--------1-2-------1-2---|
E|-----------------------------|-----------0----0-----0----0-----0----0-----0---0-------|
  bones(raw bones)            Well, there's still a lot of rhythm in these Rockin' bones


[Instrumental]
     B                   A                      E
e|-------------------------------------------|-------------------------------------------|
B|-------------------------------------------|-------------------------------------------|
G|-------------------------------------------|-------------------------------------------|
D|-------------------------------------------|-------------------------------------------|
A|---2-2--5-5--2-2--5-5--0-0--3-3--0-0--3-3--|-------------------------------------------|
E|-------------------------------------------|--0----------------------------------------|


[Verse]
                         E
e|---------------------------------------------------------------------------------------|
B|---------------------------------------------------------------------------------------|
G|---------------------------------------------------------------------------------------|
D|---------------------------------------------------------------------------------------|
A|---------------1---2-------------------------------------------------------------------|
E|-------0---0-----------0---------------------------------------------------------------|
             I ain't worried about tomorrow, just thinkin' about tonight
             
                         E
e|---------------------------------------------------------------------------------------|
B|---------------------------------------------------------------------------------------|
G|---------------------------------------------------------------------------------------|
D|---------------------------------------------------------------------------------------|
A|---------------1---2-------------------------------------------------------------------|
E|-------0---0-----------0---------------------------------------------------------------|
             My  bones  are  gettin'  restless,  gonna  do  it  up  right

                         A
e|---------------------------------------------------------------------------------------|
B|---------------------------------------------------------------------------------------|
G|---------------------------------------------------------------------------------------|
D|---------------------------------------------------------------------------------------|
A|---------------1---2---0---------------------------------------------------------------|
E|-------0---0---------------------------------------------------------------------------|
             A   few   more   times   around   the   hardwood   floor
  
                         E
e|---------------------------------------------------------------------------------------|
B|---------------------------------------------------------------------------------------|
G|---------------------------------------------------------------------------------------|
D|---------------1---2-------------------------------------------------------------------|
A|-------0---0---------------------------------------------------------------------------|
E|-----------------------0---------------------------------------------------------------| 
             Before  we  turn  off  the  lights  and  close  the  door


[Chorus]
   E                                    
e|--------------------------------------------------------|----------------------------|
B|--------------------------------------------------------|----------------------------|
G|--------------------------------------------------------|----------------------------|
D|--------------------------------------------------------|----------------------------|
A|------1-2------1-2------1-2-------1-2------1-2------1-2-|------1-2------1-2------1-2-|
E|-0--0-----0--0-----0--0------0--0-----0--0-----0--0-----|-0--0-----0--0-----0--0-----|
        Roll on (roll on)                     Rock on (rock  on)                    Raw              

   A                                       E
e|-----------------------------|--------------------------------------------------------|
B|-----------------------------|--------------------------------------------------------|
G|-----------------------------|--------------------------------------------------------|
D|-------1-2------1-2------1-2-|-------1-2----------------------------------------------|
A|--0--0-----0--0-----0--0-----|--0--0------------1-2--------1-2--------1-2-------1-2---|
E|-----------------------------|-----------0----0-----0----0-----0----0-----0---0-------|
  bones(raw bones)            Well, there's still a lot of rhythm in these Rockin' bones


[Outro]
   E
e|--------------------------------------------------------|----------------------------|
B|--------------------------------------------------------|----------------------------|
G|--------------------------------------------------------|----------------------------|
D|--------------------------------------------------------|----------------------------|
A|------1-2------1-2------1-2-------1-2------1-2------1-2-|------1-2-------------------|
E|-0--0-----0--0-----0--0------0--0-----0--0-----0--0-----|-0--0-----0-----------------|
       Rockin' bones      Rockin' bones     Rockin'
Suggest correction
Give kudos to tab author, rate the tab!
1 2 3 4 5
comments
print report bad tab
guest
You may want to rate the tab now too:
select rating
Wanna post a correction for this tab? Suggest correction