Oops, an error
Loading. Please wait.

Save It Tab

43 views 1 this week
no commentswrite comment
1 2 3 4 5
3 more votes to show rating
add to favorites
launch autoscroll
font size
0
reset
how to read this tab
guitar tuner
Autoscroll
slow
fast
+/-
esc
set tempo
stop
Help us to improve Ultimate-Guitar.com Take our survey!
×
Author
Difficulty
[Intro]
     E
e|------------------------------------|------------------------------------|
B|------------------------------------|------------------------------------|
G|------------------------------------|------------------------------------|
D|------------------------------------|------------------------------------|
A|---2-----2-----2-----2-----2--------|------------------------------------|
E|---0-----3-----0-----3-----0--------|------------------------------------|
                                           Muw-a-ha-ha-ha 
     E
e|------------------------------------|------------------------------------|
B|------------------------------------|------------------------------------|
G|------------------------------------|------------------------------------|
D|------------------------------------|------------------------------------|
A|---2-----2-----2-----2-----2--------|------------------------------------|
E|---0-----3-----0-----3-----0--------|------------------------------------|
                                           Muw-a-ha-ha-ha 
     E
e|------------------------------------|------------------------------------|
B|------------------------------------|------------------------------------|
G|------------------------------------|------------------------------------|
D|------------------------------------|------------------------------------|
A|---2-----2-----2-----2-----2--------|------------------------------------|
E|---0-----3-----0-----3-----0--------|------------------------------------|
                                           mmmmmmm
     E
e|------------------------------------|------------------------------------|
B|------------------------------------|------------------------------------|
G|------------------------------------|------------------------------------|
D|------------------------------------|------------------------------------|
A|---2-----2-----2-----2-----2--------|------------------------------------|
E|---0-----3-----0-----3-----0--------|------------------------------------|
                                           Hu Hu Hu                                        


[Verse]
  
   E
e|------------------------------------|------------------------------------|
B|------------------------------------|------------------------------------|
G|------------------------------------|------------------------------------|
D|------------------------------------|------------------------------------|
A|---2---2---2---2---2---2---2---2----|---2---2---2---2---2---2---2---2----|
E|---0---3---0---3---0---3---0---3----|---0---3---0---3---0---3---0---3----|
    Shakes me up to see you walk,        It tears me up to hear you talk

     A                                   B
e|------------------------------------|------------------------------------|
B|------------------------------------|------------------------------------|
G|------------------------------------|------------------------------------|
D|---2---2---2---2---2---2---2---2----|---4---4---4---4---4---4---4---2----|
A|---0---3---0---3---0---3---0---3----|---2---5---2---5---2---5---2---0----|
E|------------------------------------|------------------------------------|
 You drive my nerves the way you pant, You got more love than I'll ever get


[Chorus]
 
    E
e|------------------------------------|------------------------------------|
B|------------------------------------|------------------------------------|
G|------------------------------------|------------------------------------|
D|------------------------------------|------------------------------------|
A|---2---2---2---2---2---2---2---2----|---2---2---2---2---2---2---2---2----|
E|---0---3---0---3---0---3---0---3----|---0---3---0---3---0---3---0---3----|
     So Save it baby, save it           Now don't you dare waste it, uh-uh

     A                                    E
e|------------------------------------|------------------------------------|
B|------------------------------------|------------------------------------|
G|------------------------------------|------------------------------------|
D|---2---2---2---2---2---2---2---2----|------------------------------------|
A|---0---3---0---3---0---3---0---3----|---2---2---2---2---2---2---2---2----|
E|------------------------------------|---0---3---0---3---0---3---0---3----|
     Save it baby, save it                You don't know how I crave it 

     B               A                    E
e|------------------------------------|------------------------------------|
B|------------------------------------|------------------------------------|
G|------------------------------------|------------------------------------|
D|---4---4---4---4---2---2---2---2----|------------------------------------|
A|---2---5---2---5---0---3---0---3----|---2---2---2---2---2---2---2---2----|
E|------------------------------------|---0---3---0---3---0---3---0---3----|
 Your love could kill, the way you thrill, So save it all for me


[Verse]
     E                                  
e|------------------------------------|------------------------------------|
B|------------------------------------|------------------------------------|
G|------------------------------------|------------------------------------|
D|------------------------------------|------------------------------------|
A|---2---2---2---2---2---2---2---2----|---2---2---2---2---2---2---2---2----|
E|---0---3---0---3---0---3---0---3----|---0---3---0---3---0---3---0---3----|  
   I love the way you use your charm,   The Way you tremble in my heart
   
     A                                    B 
e|------------------------------------|------------------------------------|
B|------------------------------------|------------------------------------|
G|------------------------------------|------------------------------------|
D|---2---2---2---2---2---2---2---2----|---4---4---4---4---4---4---4---2----|
A|---0---3---0---3---0---3---0---3----|---2---5---2---5---2---5---2---0----|
E|------------------------------------|------------------------------------|
     You got more lovin' too miss,      But I can't spare the smallest kiss


[Chorus]
     E                                  
e|------------------------------------|------------------------------------|
B|------------------------------------|------------------------------------|
G|------------------------------------|------------------------------------|
D|------------------------------------|------------------------------------|
A|---2---2---2---2---2---2---2---2----|---2---2---2---2---2---2---2---2----|
E|---0---3---0---3---0---3---0---3----|---0---3---0---3---0---3---0---3----|
     So Save it baby, save it             You don't know how I crave it

     A                                    E
e|------------------------------------|------------------------------------|
B|------------------------------------|------------------------------------|
G|------------------------------------|------------------------------------|
D|---2---2---2---2---2---2---2---2----|------------------------------------|
A|---0---3---0---3---0---3---0---3----|---2---2---2---2---2---2---2---2----|
E|------------------------------------|---0---3---0---3---0---3---0---3----|
     Save it baby, save it                Now don't you dare waste it

     B               A                    E
e|------------------------------------|------------------------------------|
B|------------------------------------|------------------------------------|
G|------------------------------------|------------------------------------|
D|---4---4---4---4---2---2---2---2----|------------------------------------|
A|---2---5---2---5---0---3---0---3----|---2---2---2---2---2---2---2---2----|
E|------------------------------------|---0---3---0---3---0---3---0---3----|
 Your love could kill, the way you thrill, So save it all for me, Yeah 


[Solo 1]

e|------------------------------------|------------------------------------|
B|------------------------------------|------------------------------------|
G|------------------------------------|------------------------------------|
D|------------------------------------|------------------------------------|
A|-------------------3b--3b--3b--3b---|-------------------3b--3b--3b--3b---|
E|---3b--3b--3b--3b-------------------|---3b--3b--3b--3b-------------------|
 
e|------------------------------------|------------------------------------|
B|------------------------------------|------------------------------------|
G|------------------------------------|------------------------------------|
D|-------------------5b--5b--5b--5b---|-------------------5b--5b--5b--5b---|
A|---5b--5b--5b--5b-------------------|---5b--5b--5b--5b-------------------|
E|------------------------------------|------------------------------------|

e|------------------------------------|------------------------------------|
B|------------------------------------|------------------------------------|
G|------------------------------------|------------------------------------|
D|------------------------------------|------------------------------------|
A|---5b------5b-----------------------|------------------------------------|
E|-------------------5b------5b-------|---3b-------3b-----2b------2b-------| 


[Solo 2]

e|---11--12--12--12--12--12--12--12---|---11--12--12--12--12--12--12--12---|
B|------------------------------------|------------------------------------|
G|------------------------------------|------------------------------------|
D|------------------------------------|------------------------------------|
A|------------------------------------|------------------------------------|
E|------------------------------------|------------------------------------|

e|---11--12--12--12--12--12--12--12---|---12--12--11--11--10--10--9--9-----|
B|------------------------------------|------------------------------------|
G|------------------------------------|------------------------------------|
D|------------------------------------|------------------------------------|
A|------------------------------------|------------------------------------|
E|------------------------------------|------------------------------------|

e|---7---7---7---7---7---7---6---6----|---5---5---5---5---5---5---7---7----|
B|------------------------------------|------------------------------------|
G|------------------------------------|------------------------------------|
D|------------------------------------|------------------------------------|
A|------------------------------------|------------------------------------|
E|------------------------------------|------------------------------------|

e|---12--12--12--12--12--12--11--11---|---12--12--12--12--12--12--12--12---|
B|------------------------------------|------------------------------------|
G|------------------------------------|------------------------------------|
D|------------------------------------|------------------------------------|
A|------------------------------------|------------------------------------|
E|------------------------------------|------------------------------------|

e|---15--15--15--15--15--15--15--15---|---12--12--12--12--12--12--12--12---|
B|------------------------------------|------------------------------------|
G|------------------------------------|------------------------------------|
D|------------------------------------|------------------------------------|
A|------------------------------------|------------------------------------|
E|------------------------------------|------------------------------------|

e|---0---0---0---0---0---0---0---0----|---0---0---0---0---0---0---0---0----|
B|------------------------------------|------------------------------------|
G|------------------------------------|------------------------------------|
D|------------------------------------|------------------------------------|
A|------------------------------------|------------------------------------|
E|------------------------------------|------------------------------------|


[Verse]
     
      E                                  
e|-----------------------------------------|-----------------------------------------|
B|-----------------------------------------|-----------------------------------------|
G|-----------------------------------------|-----------------------------------------|
D|-----------------------------------------|-----------------------------------------|
A|----2----2---2----2---2----2---2----2----|----2----2---2----2---2----2---2----2----|
E|----0----3---0----3---0----3---0----3----|----0----3---0----3---0----3---0----3----|  
  Ooh, you shake me up your swingin' hips, You send my soul with your clingin' lips
   
      A                                         B 
e|-----------------------------------------|-----------------------------------------|
B|-----------------------------------------|-----------------------------------------|
G|-----------------------------------------|-----------------------------------------|
D|----2----2---2----2---2----2---2----2----|----4----4---4----4---4----4---4----2----|
A|----0----3---0----3---0----3---0----3----|----2----5---2----5---2----5---2----0----|
E|-----------------------------------------|-----------------------------------------|
 Your loves like a well that won't run dry, I can't drink it all, but it's fun to try


[Chorus]

     E     
e|------------------------------------|------------------------------------|
B|------------------------------------|------------------------------------|
G|------------------------------------|------------------------------------|
D|------------------------------------|------------------------------------|
A|---2---2---2---2---2---2---2---2----|---2---2---2---2---2---2---2---2----|
E|---0---3---0---3---0---3---0---3----|---0---3---0---3---0---3---0---3----|
     So Save it baby, save it           Now don't you dare waste it, uh-uh
  
     A                                    E
e|------------------------------------|------------------------------------|
B|------------------------------------|------------------------------------|
G|------------------------------------|------------------------------------|
D|---2---2---2---2---2---2---2---2----|------------------------------------|
A|---0---3---0---3---0---3---0---3----|---2---2---2---2---2---2---2---2----|
E|------------------------------------|---0---3---0---3---0---3---0---3----|
     Save it baby, save it                You don't know how I crave it

     B               A                    E
e|------------------------------------|------------------------------------|
B|------------------------------------|------------------------------------|
G|------------------------------------|------------------------------------|
D|---4---4---4---4---2---2---2---2----|------------------------------------|
A|---2---5---2---5---0---3---0---3----|---2---2---2---2---2---2---2---2----|
E|------------------------------------|---0---3---0---3---0---3---0---3----|
  Love could kill the way you thrill, So save it all for me,  hu hu hu hu


[Outro]
     
     E
e|------------------------------------|------------------------------------|
B|------------------------------------|------------------------------------|
G|------------------------------------|------------------------------------|
D|------------------------------------|------------------------------------|
A|---2-----2-----2-----2-----2--------|------------------------------------|
E|---0-----3-----0-----3-----0--------|------------------------------------|
     Save it all for me                     Hu Hu Hu Hu

     E
e|------------------------------------|------------------------------------|
B|------------------------------------|------------------------------------|
G|------------------------------------|------------------------------------|
D|------------------------------------|------------------------------------|
A|---2-----2-----2-----2-----2--------|------------------------------------|
E|---0-----3-----0-----3-----0--------|------------------------------------|
     Save it all for me                    Hu Hu Hu Hu

     E
e|------------------------------------|------------------------------------|
B|------------------------------------|------------------------------------|
G|------------------------------------|------------------------------------|
D|------------------------------------|------------------------------------|
A|---2-----2-----2-----2-----2--------|------------------------------------|
E|---0-----3-----0-----3-----0--------|------------------------------------|
     Save it all for me                    Hu Hu Hu Hu         Hu


************************************


| b   Bend


************************************
Suggest correction
Give kudos to tab author, rate the tab!
1 2 3 4 5
comments
print report bad tab
guest
You may want to rate the tab now too:
select rating
Wanna post a correction for this tab? Suggest correction