Oops, an error
Loading. Please wait.

Sunglasses After Dark chords

19 views 6 this week
no commentswrite comment
1 2 3 4 5
3 more votes to show rating
add to favorites
×
Save as Personal and add changes to this tab that will be seen only by you. Learn more ›
×
You can save this tab as Personal to edit and correct it or add notes. All changes will be seen only by you. Learn more »
launch autoscroll
font size
0
reset
transpose
0
reset
display chords
guitar tuner
edit
Autoscroll
slow
fast
+/-
esc
set tempo
stop
Strumming
There is no strumming pattern for this song yet. and get +5 IQ
Artist: The Crampss
Song: Sunglasses After Dark
Album: Songs The Lord Taught Us

[Intro]
(Feedback and random
 trills 0:00 to 0:20)  (Guitar and drums enter at 0:21)
  N.C.  
e|--------------------|--0-----------------|--------------------|--------------------|
B|--------------------|-------0------------|--------------------|--------------------|
G|--------------------|------------0-------|--------------------|--------------------|
D|--------------------|-----------------0--|--------------------|--------------------|
A|--------------------|--------------------|--0-----------------|--------------------|
E---------------------|--------------------|-------0----0----0--|-----0--------0-----|

[Verse 1]
(Lyrics begin at 0:49)
N.C.
I got somethin' to say to you and you better listen
                                                    G A E
I'm'a tell ya how to be cool in one easy lesson, go!
                      B G A B
Sunglasses after dark!
                            B G A B
AAAAAHHHH! They're so sharp!
N.C.
And you'll be cool

                                              And     the     squares'll    drool
e|-14--14-12-14--14-12-14--14-12-14--14-12-|-12--12-10-12--12-10-12--12-10-12--10--|
B|-----------------------------------------|---------------------------------------|
G|-----------------------------------------|---------------------------------------|
D|-----------------------------------------|---------------------------------------|
A|-----------------------------------------|---------------------------------------|
E|-----------------------------------------|---------------------------------------|

[Verse 2]
B                 B G A B
  It's real simple
                      B G A B
Sunglasses after dark!

AAAAAHHHH! They're so sharp!

[Instrumental]
B  A B  A B  A B  A
E  D E  D E  D E  D
B  A B  A B  A B  A  (x2)
E  D E  D E  D E  D  (x2)
B  A B  A B  A B  A  (x2)

e|-14--14-12-14--14-12-14--14-12-14--14-12-|-12--12-10-12--12-10-12--12-10-12--10--|
B|-----------------------------------------|---------------------------------------|
G|-----------------------------------------|---------------------------------------|
D|-----------------------------------------|---------------------------------------|
A|-----------------------------------------|---------------------------------------|
E|-----------------------------------------|---------------------------------------|

[Verse 3]
B                B G A B
  Listen to this
                            B G A E
Went out last Saturday night
                           B G A B
Got myself in a knife fight
                              B G A B
Everybody got cut including me
N.C.
'Cause not one of us cats could see!

                                                       We    had    on    S.A.D.
e|-14--14-12-14--14-12-14--14-12-14--14-12-|-12--12-10-12--12-10-12--12-10-12--10--|
B|-----------------------------------------|---------------------------------------|
G|-----------------------------------------|---------------------------------------|
D|-----------------------------------------|---------------------------------------|
A|-----------------------------------------|---------------------------------------|
E|-----------------------------------------|---------------------------------------|

[Verse 4]
B            B G A  B
 That's right
                                    B G A  E
I was hangin' around on the street
                                           B G A  B
When this great big guy ran right into me!
                                                   B G A  B
I could hardly make him out, everything was so dim
N.C.
But then I seen what was wrong with him

                                              He    was    wearin'    sunglasses
e|-14--14-12-14--14-12-14--14-12-14--14-12-|-12--12-10-12--12-10-12--12-10-12--10--|
B|-----------------------------------------|---------------------------------------|
G|-----------------------------------------|---------------------------------------|
D|-----------------------------------------|---------------------------------------|
A|-----------------------------------------|---------------------------------------|
E|-----------------------------------------|---------------------------------------|

B
  After dark

[Verse 5]
B G A B                        B G A E
        Sunglasses after dark!
                           B G A B
Whooooo! They're so sharp!
                       B G A B
Sunglasses after dark!

Whooooo! It's so simple!

e|-14--14-12-14--14-12-14--14-12-14--14-12-|-12--12-10-12--12-10-12--12-10-12--10--|
B|-----------------------------------------|---------------------------------------|
G|-----------------------------------------|---------------------------------------|
D|-----------------------------------------|---------------------------------------|
A|-----------------------------------------|---------------------------------------|
E|-----------------------------------------|---------------------------------------|

   B
e|-----------------------------------------|---------------------------------------|
B|-----------------------------------------|---------------------------------------|
G|-----------------------------------------|---------------------------------------|
D|-----------------------------------------|---------------------------------------|
A|-------------------------0-------0--2----|---------------------------------------|
E|---------------------0-------0-----------|---------------------0----0--0---2-----|
                                              Where    am    I

[Outro]
B G A B
B G A E
B G A B
Suggest correction
Creating personal tab
Creating personal tab
You can edit any tab online and save it as your Personal.

You can edit, replace or remove any tab part or add personal notes – all changes will be seen only by you.

Personal tabs can be accessed anytime from any device, even offline.
Learn more »
Give kudos to tab author, rate the tab!
1 2 3 4 5
comments
print report bad tab
guest
You may want to rate the tab now too:
select rating
Wanna post a correction for this tab? Suggest correction