Oops, an error
Loading. Please wait.

Whats Behind The Mask Tab

109 views 15 this week
no commentswrite comment
1 2 3 4 5
3 more votes to show rating
add to favorites
launch autoscroll
font size
0
reset
how to read this tab
guitar tuner
Autoscroll
slow
fast
+/-
esc
set tempo
stop
Help us to improve Ultimate-Guitar.com Take our survey!
×
Author
About this tab version
Partial Solo present Feel free to add the rest. Was this info helpful? Yes No
Intro :0 to :09
e|-------------------------------------------------------------------| 
B|--5v--------3-3-------3-3-5v---------------------------------------| 
G|--------1-1-3-3-1-1-1-3-3------------------------------------------| 
D|----2v--2-2-3-3-2-2-2-3-3----2v------------------------------------| 
A|--------2-2-----2-2-2----------------------------------------------| 
E|-------------------------------------------------------------------|  


Play until :51
e|----------------------------------------------------------| 
B|---------3-3-------3-3-----3-3-------3-3--5v--------------| 
G|-----1-1-3-3-1-1-1-3-3-1-1-3-3-1-1-1-3-3------------------| 
D|-----2-2-3-3-2-2-2-3-3-2-2-3-3-2-2-2-3-3-----2v-----------| 
A|-----2-2-----2-2-2-----2-2-----2-2-2----------------------| 
E|----------------------------------------------------------|  


Solo: :52 to 1:12 (SOLO IN E BLUES SCALE) 
e|--0----------------------0-0----------------------------------------------------------------------------|
B|----3-0----------------------3-0---------------------------5-8-5----------------------------------------|
G|-------2-0-------------0---------2-0-------------0-4-4-4-7-----------------------------============-----|
D|-----------2-0-2-2-0-2---------------2-0-2-2-0-2------------------=----================-----------------| 
A|--------------------------------------------------------------------------------------------------------| 
E|--------------------------------------------------------------------------------------------------------|

Suggest correction
Give kudos to tab author, rate the tab!
1 2 3 4 5
comments
print report bad tab
guest
You may want to rate the tab now too:
select rating
Wanna post a correction for this tab? Suggest correction