Oops, an error
Loading. Please wait.

Whats Behind The Mask Tab

43 views 1 this week
no commentswrite comment
1 2 3 4 5
3 more votes to show rating
add to favorites
launch autoscroll
font size
0
reset
how to read this tab
guitar tuner
Autoscroll
slow
fast
+/-
esc
set tempo
stop
Help us to improve Ultimate-Guitar.com Take our survey!
×
Author
About this tab version
No solo present if you figure it out please make a new tab with it. Other than that the rest should be correct for the rest of the song. Was this info helpful? Yes No


Intro
e|-------------------------------------------------------------------| 
B|--5b----1-1-3-3-1-3-3-5b-------------------------------------------| 
G|-----2b-2-2-3-3-2-3-3----2b----------------------------------------| 
D|--------2-2-3-3-2-3-3-------------------------------------------=--| 
A|-------------------------------------------------------------------| 
E|-------------------------------------------------------------------|  


Play until :50
e|-------------------------------------------------------------------| 
B|------1-1-3-3-1-3-3-1-1-3-3-1-3-3-1-1-3-3-1-3-3-5b-----------------| 
G|------2-2-3-3-2-3-3-2-2-3-3-2-3-3-2-2-3-3-2-3-3----2b--------------| 
D|------2-2-3-3-2-3-3-2-2-3-3-2-3-3-2-2-3-3-2-3-3----------------=---| 
A|-------------------------------------------------------------------| 
E|------------------------------------------------------- ---|  


Solo
e|-------------------------------------------------------------------| 
B|--5-3-0--------------5-3-0-----------------------------------------| 
G|-------2-0----------------2-0--------------------------------------| 
D|-----------2-2-0-2-5------------2-2-0-2-5---------------------=----| 
A|-------------------------------------------------------------------| 
E|-------------------------------------------------------------------|  
Suggest correction
Give kudos to tab author, rate the tab!
1 2 3 4 5
comments
print report bad tab
guest
You may want to rate the tab now too:
select rating
Wanna post a correction for this tab? Suggest correction