Oops, an error
Loading. Please wait.

You Got Good Taste tab

911 views 6 this week
no commentswrite comment
1 2 3 4 5
1 last vote to show rating
add to favorites
×
Save as Personal and add changes to this tab that will be seen only by you. Learn more ›
×
You can save this tab as Personal to edit and correct it or add notes. All changes will be seen only by you. Learn more »
launch autoscroll
font size
0
reset
how to read this tab
guitar tuner
edit
Autoscroll
slow
fast
+/-
esc
set tempo
stop
The Cramps
You Got Good Taste (Live)
Smell of Female 
https://www.youtube.com/watch?v=8mrjcNBD1RE


[Intro]
                                                                 N.C.
e|----12-10----12-10-10-|-----10-8----10-8-----|----------------------|----------------------|
B|-12-------12----------|--10------10----------|----------------------|----------------------|
G|----------------------|----------------------|----------------------|----------------------|
D|----------------------|----------------------|--3---4---5---6---7---|----------------------|
A|----------------------|----------------------|--3---4---5---6---7---|----------------------|
E|----------------------|----------------------|--1---2---3---4---5---|----------------------|

e|----------------------|----------------------|----------------------|----------------------|
B|----------------------|----------------------|----------------------|----------------------|
G|----------------------|----------------------|----------------------|----------------------|
D|--7---------7----7----|--7---------7----7----|--7---------7----7----|--7---------7----7----|
A|--7---------7----7----|--7---------7----7----|--7---------7----7----|--7---------7----7----|
E|--5---------5----5----|--5---------5----5----|--5---------5----5----|--5---------5----5----|


[Verse 1]

e|----------------------|----------------------|----------------------|----------------------|
B|----------------------|----------------------|----------------------|----------------------|
G|----------------------|----------------------|----------------------|----------------------|
D|--7---------7----7----|--7---------7----7----|--7---------7----7----|--7---------7----7----|
A|--7---------7----7----|--7---------7----7----|--7---------7----7----|--7---------7----7----|
E|--5---------5----5----|--5---------5----5----|--5---------5----5----|--5---------5----5----|
    I got this stuff    on the tip of my tongue  Chandeliers light up   the pictures you hung

e|----------------------|----------------------|
B|----------------------|----------------------|
G|----------------------|----------------------|
D|---7------------------|----------------------|
A|---7------------------|----------------------|
E|---5------------------|----------------------|
   Whoooo                  You got good taste


[Chorus]

e|-----10-8----10-8--8--|-----10-8----10-8-----|----17-15----17-15-15-|----17-15----17-15----|
B|--10------10----------|--10------10----------|-17-------17----------|-17-------17----------|
G|----------------------|----------------------|----------------------|----------------------|
D|----------------------|----------------------|----------------------|----------------------|
A|----------------------|----------------------|----------------------|----------------------|
E|----------------------|----------------------|----------------------|----------------------|
                          Whoo baby good taste                          Ah you got good taste

e|----12-10----12-10-10-|-----10-8----10-8-----|----17-15----17-15-15-|----17-15----17-15----|
B|-12-------12----------|--10------10----------|-17-------17----------|-17-------17----------|
G|----------------------|----------------------|----------------------|----------------------|
D|----------------------|----------------------|----------------------|----------------------|
A|----------------------|----------------------|----------------------|----------------------|
E|----------------------|----------------------|----------------------|----------------------|
                             Oh      baby           good      taste


[Verse 2]

e|----------------------|----------------------|----------------------|----------------------|
B|----------------------|----------------------|----------------------|----------------------|
G|----------------------|----------------------|----------------------|----------------------|
D|--7---------7----7----|--7---------7----7----|--7---------7----7----|--7---------7----7----|
A|--7---------7----7----|--7---------7----7----|--7---------7----7----|--7---------7----7----|
E|--5---------5----5----|--5---------5----5----|--5---------5----5----|--5---------5----5----|
  Well ya gotta big vase   Tomato paste           But one thing babe     you gotta face

e|--------------------|--------------------|
B|--------------------|--------------------|
G|--------------------|--------------------|
D|---7----------------|--------------------|
A|---7----------------|--------------------|
E|---5----------------|--------------------|
  Oooooh               and that's good taste


[Chorus]

e|-----10-8----10-8--8--|-----10-8----10-8-----|----17-15----17-15-15-|----17-15----17-15----|
B|--10------10----------|--10------10----------|-17-------17----------|-17-------17----------|
G|----------------------|----------------------|----------------------|----------------------|
D|----------------------|----------------------|----------------------|----------------------|
A|----------------------|----------------------|----------------------|----------------------|
E|----------------------|----------------------|----------------------|----------------------|
                           Hey   good   taste                          Well I mean good taste

e|----12-10----12-10-10-|-----10-8----10-8-----|----17-15----17-15-15-|----17-15----17-15----|
B|-12-------12----------|--10------10----------|-17-------17----------|-17-------17----------|
G|----------------------|----------------------|----------------------|----------------------|
D|----------------------|----------------------|----------------------|----------------------|
A|----------------------|----------------------|----------------------|----------------------|
E|----------------------|----------------------|----------------------|----------------------|
                            Baby      baby          good      taste


[Verse 3]

e|----------------------|----------------------|----------------------|----------------------|
B|----------------------|----------------------|----------------------|----------------------|
G|----------------------|----------------------|----------------------|----------------------|
D|--7---------7----7----|--7---------7----7----|--7---------7----7----|--7---------7----7----|
A|--7---------7----7----|--7---------7----7----|--7---------7----7----|--7---------7----7----|
E|--5---------5----5----|--5---------5----5----|--5---------5----5----|--5---------5----5----|
  Well ya got good taste   and I ain't dumb       Ah  ooh - wee baby     a - yum - yum - yum

e|--------------------|--------------------|
B|--------------------|--------------------|
G|--------------------|--------------------|
D|---7----------------|--------------------|
A|---7----------------|--------------------|
E|---5----------------|--------------------|
    Ah-oooooooh         You got good taste


[Chorus]

e|-----10-8----10-8--8--|-----10-8----10-8-----|----17-15----17-15-15-|----17-15----17-15----|
B|--10------10----------|--10------10----------|-17-------17----------|-17-------17----------|
G|----------------------|----------------------|----------------------|----------------------|
D|----------------------|----------------------|----------------------|----------------------|
A|----------------------|----------------------|----------------------|----------------------|
E|----------------------|----------------------|----------------------|----------------------|
                           Oh   good   taste                           Oooh you got good taste

e|----12-10----12-10-10-|-----10-8----10-8-----|----17-15----17-15-15-|---0------------------|
B|-12-------12----------|--10------10----------|-17-------17----------|--------3---1---------|
G|----------------------|----------------------|----------------------|-----------------2----|
D|----------------------|----------------------|----------------------|----------------------|
A|----------------------|----------------------|----------------------|----------------------|
E|----------------------|----------------------|----------------------|----------------------|
                             My      baby          good    taste            Both  of  them


[Solo]
                                                                    
e|----------------------|----------------------|----------------------|----------------------|
B|----------------------|----------------------|----------------------|----------------------|
G|----------------------|----------------------|----------------------|--------0-------------|
D|----------------------|-------2---0----------|-------2---2---0------|--0---2-----2---------|
A|----0-----------------|---0-----------0------|---0------------------|--------------0-------|
E|----------------------|----------------------|----------------------|----------------------|
 
e|----------------------|----------------------|----------------------|----------------------|
B|----------------------|----------------------|----------------------|----------------------|
G|----------------------|----------------------|----------------------|----------------------|
D|-----2--2--2--1--0--0-|-0--------------------|----------------------|----------------------|
A|--0-------------------|----3--3--2--2--0-----|---0-----------0------|--0---3---3---0-------|
E|----------------------|----------------------|-------3---3----------|----------------------|

e|----------------------|----------------------|----------------------|----------------------|
B|----------------------|----------------------|----------------------|----------------------|
G|----------------------|--------0-------------|----------------------|----------------------|
D|------2---2---0-------|--0---2-----2---------|-----2--2--2--1--0--0-|-0--------------------|
A|--0-------------------|--------------0-------|--0-------------------|----3--3--2--2--0-----|
E|----------------------|----------------------|----------------------|----------------------|

e|----------------------|----------------------|----------------------|----------------------|
B|----------------------|----------------------|----------------------|----------------------|
G|----------------------|----------------------|----------------------|----------------------|
D|----------------------|--7---------7----7----|--7---------7----7----|--7---------7----7----|
A|----0-----------------|--7---------7----7----|--7---------7----7----|--7---------7----7----|
E|----------------------|--5---------5----5----|--5---------5----5----|--5---------5----5----|

e|----------------------|
B|----------------------|
G|----------------------|
D|---7--------7----7----|
A|---7--------7----7----|
E|---5--------5----5----|


[Verse 4]

e|----------------------|----------------------|----------------------|----------------------|
B|----------------------|----------------------|----------------------|----------------------|
G|----------------------|----------------------|----------------------|----------------------|
D|--7---------7----7----|--7---------7----7----|--7---------7----7----|--7---------7----7----|
A|--7---------7----7----|--7---------7----7----|--7---------7----7----|--7---------7----7----|
E|--5---------5----5----|--5---------5----5----|--5---------5----5----|--5---------5----5----|
   You got good taste     You got good taste     You  come  here        sit on my.......lap   

e|----------------------|----------------------|----------------------|----------------------|
B|----------------------|----------------------|----------------------|----------------------|
G|----------------------|----------------------|----------------------|----------------------|
D|--7---------7----7----|--7---------7----7----|--7-------------------|----------------------|
A|--7---------7----7----|--7---------7----7----|--7-------------------|----------------------|
E|--5---------5----5----|--5---------5----5----|--5-------------------|----------------------|
   You  know  I  know      Where   it's   at      Oooooooh               You got good taste


[Chorus]

e|-----10-8----10-8--8--|-----10-8----10-8-----|----17-15----17-15-15-|----17-15----17-15----|
B|--10------10----------|--10------10----------|-17-------17----------|-17-------17----------|
G|----------------------|----------------------|----------------------|----------------------|
D|----------------------|----------------------|----------------------|----------------------|
A|----------------------|----------------------|----------------------|----------------------|
E|----------------------|----------------------|----------------------|----------------------|
                          Whoo baby good taste                         Yummy yummy good taste

e|----12-10----12-10-10-|-----10-8----10-8-----|----17-15----17-15-15-|----17-15----17-15----|
B|-12-------12----------|--10------10----------|-17-------17----------|-17-------17----------|
G|----------------------|----------------------|----------------------|----------------------|
D|----------------------|----------------------|----------------------|----------------------|
A|----------------------|----------------------|----------------------|----------------------|
E|----------------------|----------------------|----------------------|----------------------|
                            Baby      baby         good     taste                Whoo


[Verse 5]

e|----------------------|----------------------|----------------------|----------------------|
B|----------------------|----------------------|----------------------|----------------------|
G|----------------------|----------------------|----------------------|----------------------|
D|--7---------7----7----|--7---------7----7----|--7---------7----7----|--7---------7----7----|
A|--7---------7----7----|--7---------7----7----|--7---------7----7----|--7---------7----7----|
E|--5---------5----5----|--5---------5----5----|--5---------5----5----|--5---------5----5----|
 You musta snagged something in them fishnet stockings, you got something I can put my heart 

e|--------------------|--------------------|
B|--------------------|--------------------|
G|--------------------|--------------------|
D|---7----------------|--------------------|
A|---7----------------|--------------------|
E|---5----------------|--------------------|
   in tooooooo         got    good    taste


[Chorus]

e|-----10-8----10-8--8--|-----10-8----10-8-----|----17-15----17-15-15-|----17-15----17-15----|
B|--10------10----------|--10------10----------|-17-------17----------|-17-------17----------|
G|----------------------|----------------------|----------------------|----------------------|
D|----------------------|----------------------|----------------------|----------------------|
A|----------------------|----------------------|----------------------|----------------------|
E|----------------------|----------------------|----------------------|----------------------|
                         That's right good taste                       Hooo you got good taste

e|----12-10----12-10-10-|-----10-8----10-8-----|----17-15----17-15-15-|--0-------------------|
B|-12-------12----------|--10------10----------|-17-------17----------|------3--1------------|
G|----------------------|----------------------|----------------------|------------2----2----|
D|----------------------|----------------------|----------------------|----------------------|
A|----------------------|----------------------|----------------------|----------------------|
E|----------------------|----------------------|----------------------|----------------------|
                           Hey    baby            good   taste         Well you got good taste


[Outro]

e|----------------------|----------------------|----------------------|----------------------|
B|----------------------|----------------------|----------------------|----------------------|
G|----------------------|----------------------|----------------------|----------------------|
D|----------------------|-------2---0----------|-------2---0---2------|-------2---0----------|
A|----0-----------------|---0-----------0------|---0------------------|---0-----------0------|
E|----------------------|----------------------|----------------------|----------------------|
                  Yea you got good taste huh-uh-uh baby-baby you got good taste baby-baby you

e|----------------------|----------------------|----------------------|----------------------|
B|----------------------|----------------------|----------------------|----------------------|
G|----------------------|----------------------|----------------------|----------------------|
D|----------------------|----------------------|----------------------|--7---------7----7----|
A|---0---3---3---0------|---0---0------0-------|---0---3---3---0------|--7---------7----7----|
E|----------------------|-----------3----------|----------------------|--5---------5----5----|
  got good taste baby-baby it's all over the place baby-baby you got good taste

e|----------------------|----------------------|----------------------|
B|----------------------|----------------------|----------------------|
G|----------------------|----------------------|----------------------|
D|--7---------7----7----|--7---------7----7----|--7---------7----7----|
A|--7---------7----7----|--7---------7----7----|--7---------7----7----|
E|--5---------5----5----|--5---------5----5----|--5---------5----5----|


            
            
Suggest correction
Creating personal tab
Creating personal tab
You can edit any tab online and save it as your Personal.

You can edit, replace or remove any tab part or add personal notes – all changes will be seen only by you.

Personal tabs can be accessed anytime from any device, even offline.
Learn more »
Give kudos to tab author, rate the tab!
1 2 3 4 5
comments
print report bad tab
guest
You may want to rate the tab now too:
select rating
Wanna post a correction for this tab? Suggest correction