Oops, an error
Loading. Please wait.

Close To You Bass Tab

3,203 views 3 this week
no commentswrite comment
1 2 3 4 5
please rate
add to favorites
launch autoscroll
font size
0
reset
guitar tuner
Tab Pro tools
  • play this tab
  • loop segment
  • change instrument
  • show fretboard
  • metronome
×
Best way to learn
"Close To You"
Autoscroll
slow
fast
+/-
esc
set tempo
stop
Contributor
0:22
G-------------------------------------------------|
D----5-----4-----4--5-4-2--2-----5-----5-----0----|
A-3-----2-----2---------------3-----3-----2-------|
E----------------------------------------------3--|

G---------------------------------------------|
D----5-----5-----4--2--2-----5-----5----0-----|
A-3-----3-----2-----------3-----3-------------|
E---------------------------------------------|

G-------------------------------------------------|
D----5-----4-----4--5-4-2--2-----5-----5-----0----|
A-3-----2-----2---------------3-----3-----2-------|
E-----------------------------------------------3-|

Repeat
G------------------------|
D----5-----5-----0-----0-|
A-3-----3-----2----------|
E-------------------3----|
comments
We did not receive enough feedback on this tab! Please rate:
print report bad tab
1 2 3 4 5
I want to post or [tab]
guest
You may want to rate the tab now too:
select rating
Please do not post tabs as comments. Select "correction" instead!