Oops, an error
Loading. Please wait.

Daffodil Lament Chords

version 2
version 2

Whole song

15,843 views 36 this week
2 commentsread comments
1 2 3 4 5
excellent!
x 13
add to favorites
launch autoscroll
font size
0
reset
transpose
0
reset
simplify chords
- display chords -
guitar tuner
Tab Pro tools
  • play this tab
  • loop segment
  • change instrument
  • show fretboard
  • metronome
Autoscroll
slow
fast
+/-
esc
set tempo
stop
Contributor
-------------------------------------------------------------------------------
                       DAFFODIL LAMENT - The Cranberries
-------------------------------------------------------------------------------
Tabbed by: Pat Malavi
Email: pat.malavi@gmail.com


Capo: 3rd fret

Em   0220xx
G    3200xx
D/F# 2000xx
C    03201x

--- Part 1 ---

    Em          Em          G           D/F#
e|---------------------------------------------------------------------------|
B|---------------------------------------------------------------------------|
G|--------0-----------0-----------0-----------0------------------------------|
D|------2---2-------2---2-------0---0-------0---0----------------------------|
A|----2-------2---2-------2---2-------2---0-------0--------------------------|
E|--0-----------0-----------3-----------2------------------------------------|


Em                      G            D/F#
Holding on, that's what I do since I met you
       Em                       G           D/F#
And it won't be long, would you notice if I left you
         Em                                  G                   D/F#
And it's fine for some 'cause you're not the one, you're not the one
     Em      G      D/F#
There,  there, there
     Em      G      D/F#
There,  there, there


--- Part 2 ---
C          G              C                        G
All night long laid on my pillow, these things are wrong
        D
I can't sleep here

Em  G  D/F# [twice]

Em               G          D/F#
   So lonely, so lonely, so lonely

[play intro tab twice, then E string by itself]


--- Part 3 ---
G        D/F#     Em           C
I have decided to leave you forever
G        D/F#     Em                C
I have decided to start things from here
G           D/F#            Em              C
Thunder and lightning won't change what I'm feeling
G         D/F#           Em       C
  And the daffodils look lovely today
G         D/F#           Em       C 
  And the daffodils look lovely today
G         D/F#           Em       C 
                             look lovely today
G         D/F#           Em       C 


--- Part 4 ---
Em           D          C       D
Oooh in your eyes I can see the disguise
Em           D          C       D
Oooh in your eyes I can see the dismay
Em     D     C     D      
   Has anyone seen lightning
Em     D     C       D
   Has anyone looked lovely


--- Part 5 ---
G         D/F#           Em       C
  And the daffodils look lovely today
G         D/F#           Em       C 
  And the daffodils look lovely today
G         D/F#           Em       C 
                             look lovely today
G         D/F#           Em       C 
                             look lovely
     G           D/F#        Em          C 
look lovely look lovely look lovely look lovely
     G           D/F#        Em          C 
look lovely look lovely look lovely look lovely
     G           D/F#        Em          C 
look lovely look lovely look lovely look lovely
     G           D/F#        Em          C 
look lovely look lovely look lovely look lovely

[end on G]
 

--- Lead Guitar parts ---

Riff during Intro:

e|--------------------------------|
B|---0h8--0h5--0h3--0h1-h3-1--0---|
G|--------------------------------|
D|--------------------------------|
A|--------------------------------|
E|--------------------------------|

Riff during Part 3:

e|-----3-----2-----0--------------|
B|---3---3-3---3-3---3-0h1-0-1----|
G|--------------------------------|
D|--------------------------------|
A|--------------------------------|
E|--------------------------------|
comments
print report bad tab
2 comments total.
0 reply
tamirubin wrote on January 2 2014, 05:31 pm

I believe part 3 and part 5 have both a slightly different chord pattern:
G D C D repeatedly.

+1 reply
treppenlift wrote on May 9 2014, 07:54 pm

it's not Heyeheyeyeheaheyehere, it's there ;)

I want to post or [tab]
guest
You may want to rate the tab now too:
select rating
Please do not post tabs as comments. Select "correction" instead!