Oops, an error
Loading. Please wait.

Hollywood Tab

version 1
version 1

Whole song

Interactive

6,103 views 15 this week
1 commentread comment
1 2 3 4 5
accurate
x 5
add to favorites
launch autoscroll
font size
0
reset
how to read this tab
guitar tuner
Tab Pro tools
  • play this tab
  • loop segment
  • change instrument
  • show fretboard
  • metronome
×
Best way to learn
"Hollywood"
Autoscroll
slow
fast
+/-
esc
set tempo
stop
Contributor
Added By Mikhailo (mikhailo_@mail.ru)

Artist : Cranberries
Song   : Hollywood

Intro:

G1 (clean electric):
e-------0-------0-------0-------0---------
B----0----0---1---1---1---1---1---(1)-----
G-0---------0-------2-------2-------------
D-----------------------------------------
A-----------3-----------------------------
E-----------------------------------------

Repeat. The note in brackets is only played the first time.

Riff 1 (electric with heavy distortion):
e--------------|-------------|----------------------
b--------------|--5-5-5-5----|----------------------
g--------------|--5-5-5-5----|----------------------
d---2-2-2-2----|--3-3-3-3----|---7-7-7-7-7-7-7-7----
a---2-2-2-2----|-------------|---7-7-7-7-7-7-7-7----
E---0-0-0-0----|-------------|---5-5-5-5-5-5-5-5----

Riff 2 (elecric w/ heavy distortion):
e------------------------|-------------------------------------
b------------------------|-------------------------------------
g------------------------|-------------------------------------
d--2---2---4---5---2-----|-----2---2---4---5---2------4-5-4-5--
a---------------------0--|-------------------------0-----------
E------------------------|-------------------------------------

This is the post-intro and is played at the chorus.
Riff 1 and Riff 2 are played together at the chorus.

Here is the pattern that is played when dolores sings
"this is not hollywood":

Em C Am/Asus2
comments
print report bad tab
1 comment total.
0 reply
RFlagg wrote on July 6 2008, 10:31 pm

Good tab. Simple song, but good work all the same.
-
It might just be because I'm playing it on an acoustic (which is why I don't consider this a correction), but riff 1 sounds better to me like this:

e--------------|-------------|----------------------
b--------------|-------------|----------------------
g--------------|-5-5-5-5-----|---7-7-7-7-7-7-7-7----
d---2-2-2-2----|-5-5-5-5----|---7-7-7-7-7-7-7-7-----
a---2-2-2-2----|-3-3-3-3-----|----------------------
E---0-0-0-0----|-------------|---5-5-5-5-5-5-5-5----

Just one man's opinion. I think the last chord there resonates better, at least on an acoustic, with the a string left open, and the second chord just doesn't sound right to me played on d g & b.

I want to post or [tab]
guest
You may want to rate the tab now too:
select rating
Please do not post tabs as comments. Select "correction" instead!