Oops, an error
Loading. Please wait.

Tomorrow Bass Tab

version 1
version 1

Whole song

Interactive

548 views 3 this week
no commentswrite comment
1 2 3 4 5
please rate
add to favorites
launch autoscroll
font size
0
reset
guitar tuner
Tab Pro tools
  • play this tab
  • loop segment
  • change instrument
  • show fretboard
  • metronome
×
Best way to learn
"Tomorrow"
Autoscroll
slow
fast
+/-
esc
set tempo
stop
Contributor
-------------------------------------------------------------------------------
              TOMORROW – CRANBERRIES     GUITAR AND BASS
-------------------------------------------------------------------------------
Tabbed: AYAGD                      Tuning: STANDARD


    GUITAR 

INTRO, VERSE, CHORUS AND END
(THE PARTS LIKE: ¨I THINK THAT YOUR MAD¨, ¨TOMORROU COLD BE TOO LATE¨, ¨DARA RA RA¨)

e|--6-6--6-6-6--6---6-6-6-6-6-6-|--6-6--6-6-6--6---6-6-6-6-6-6--|
B|--7-7--7-7-7--6---6-6-6-6-6-6-|--7-7--7-7-7--6---6-6-6-6-6-6--|
G|--6-6--6-6-6--6---6-6-6-6-6-6-|--6-6--6-6-6--6---6-6-6-6-6-6--|
D|--8-8--8-8-8--8---8-8-8-8-8-8-|--8-8--8-8-8--8---8-8-8-8-8-8--|
A|--9-9--8-9-9--9---9-9-9-9-9-9-|--9-9--8-9-9--9---9-9-9-9-9-9--|
E|--6-6--6-6-6--6---6-6-6-6-6-6-|--6-6--6-6-6--6---6-6-6-6-6-6--|


e|------------------------------|-------------------------------|
B|--7-7--7-7-7--6---6-6-6-6-6-6-|--7-7--7-7-7--6---6-6-6-6-6-6--|
G|--8-8--8-8-8--8---8-8-8-8-8-8-|--8-8--8-8-8--8---8-8-8-8-8-8--|
D|--9-9--8-9-9--9---9-9-9-9-9-9-|--9-9--8-9-9--9---9-9-9-9-9-9--|
A|--9-9--8-9-9--9---9-9-9-9-9-9-|--9-9--8-9-9--9---9-9-9-9-9-9--|
E|------------------------------|-------------------------------|



PRECHORUS,POST CHHOUS AND BRIDGE BRIDGE
(THE PARTS LIKE: ¨IF YOU COULD COME AWAY WITH ME¨,¨TOO YOUG TOO PROUD TO 
FOOLISH¨, ¨AAAAAA AA AA  AAAAA AA AA-THIS IS BEFORE THE LAST CHORUS¨)

e|--6--6---6-6-6--6-|-6--6---6-6-6--6-|-7--7---7-7-7--7-|-7--7---7-7-7--7-|
B|--7--7---7-7-7--7-|-6--6---6-6-6--6-|-7--7---7-7-7--7-|-7--7---7-7-7--7-|
G|--8--8---8-8-8--8-|-6--6---6-6-6--6-|-8--8---8-8-8--8-|-8--8---8-8-8--8-|
D|--8--8---8-8-8--8-|-8--8---8-8-8--8-|-9--9---9-9-9--9-|-9--9---9-9-9--9-|
A|--6--6---6-6-6--6-|-8--8---8-8-8--8-|-9--9---9-9-9--9-|-9--9---9-9-9--9-|
E|------------------|-6--6---6-6-6--6-|-7--7---7-7-7--7-|-7--7---7-7-7--7-|




     BASS      INTRO(BEGINS AT BAR 5)

G|----|-4-6-4-----3-|-------4-6--6-3-3-|-----------|---------------|------------|
D|----|--------6----|-4--4-------------|-4-4-4-----|----3S4--4-----|------------|
A|-2--|-------------|------------------|---------4-|--2--------4--4S2-2-2-2-2-4-|
E|----|-------------|------------------|-----------|---------------|------------|


VERSE, CHORUS AND END
(THE PARTS LIKE: ¨I THINK THAT YOUR MAD¨, ¨TOMORROU COLD BE TOO LATE¨, ¨DARA RA RA¨)

G|------4S6--4---3--|------4S6--6------|----------------|-------------------|
D|-4-4---------6----|-4-4---------4-6--|------3H4-4-----|------3H4----------|
A|------------------|------------------|-2-2--------4-4-|-2-2------4-4-4-4--|
E|------------------|------------------|----------------|-------------------|



PRECHORUS,POST CHHOUS AND BRIDGE BRIDGE
(THE PARTS LIKE: ¨IF YOU COULD COME AWAY WITH ME¨,¨TOO YOUG TOO PROUD TO 
FOOLISH¨, ¨AAAAAA AA AA  AAAAA AA AA-THIS IS BEFORE THE LAST CHORUS¨)

G|------------------|------------------|--------------------|--------------------|
D|-------6S8-8-6---6|-------4S6--4-4-4-|-------2S4-4--4-----|-------2S4-4--4-----|
A|-6-6-6---------9--|-4-4-4------------|-2-2-2----------4-4-|-2-2-2----------4-4-|
E|------------------|------------------|--------------------|--------------------|



S= SLIDE     H= HAMER


COMENTS AND SUGEST AT E-mail: jet020498@hotmail.com
comments
We did not receive enough feedback on this tab! Please rate:
print report bad tab
1 2 3 4 5
I want to post or [tab]
guest
You may want to rate the tab now too:
select rating
Please do not post tabs as comments. Select "correction" instead!