Oops, an error
Loading. Please wait.

Waltzing Back Tab

version 1
version 1

Whole song

Interactive

1,218 views 3 this week
1 commentread comment
1 2 3 4 5
please rate
add to favorites
launch autoscroll
font size
0
reset
how to read this tab
guitar tuner
Tab Pro tools
  • play this tab
  • loop segment
  • change instrument
  • show fretboard
  • metronome
×
Best way to learn
"Waltzing Back"
Autoscroll
slow
fast
+/-
esc
set tempo
stop
Contributor
#----------------------------------PLEASE NOTE--------------------------------#
#This file is the author's own work and represents their interpretation of the#
#song. You may only use this file for private study, scholarship, or research.#
#-----------------------------------------------------------------------------#
#-- File created with Instab - http://www.pconline.com/~smcarey/instab.html --#
#-----------------------------------------------------------------------------#

Author/Artist: The Cranberries
Title: Waltzing Back
Album: Everybody Else Is Doing It, So Why Can't We?
Transcribed by: Loki
Email: epicurus_81@yahoo.com

Intro--Em G C Am

Here's the little part played over the chords--Listen to the
track, as I don't think I show timing too well!

-7-5-----9-----|--------------------------------------------------------------
-----8-----9---|--------------------------------------------------------------
---------------|--------------------------------------------------------------
---------------|--------------------------------------------------------------
---------------|--------------------------------------------------------------
---------------|--------------------------------------------------------------
 And here's the solo part at the end where it goes crazy... Listen for how    

-9----/-15--\--9---/-15-\-|9/15\9/15\9/15\9/15\--17---------------------------
-9----/-15--\--9---/-15-\-|9/15\9/15\9/15\9/15\--17---------------------------
--------------------------|---------------------------------------------------
--------------------------|---------------------------------------------------
--------------------------|---------------------------------------------------
--------------------------|---------------------------------------------------
 many times to play
comments
We did not receive enough feedback on this tab! Please rate:
print report bad tab
1 2 3 4 5
1 comment total.
0 reply
Czarm wrote on October 5 2014, 05:43 am, edited at 05:45 am

This is right
7--5----------10
--------8--5-------10

I want to post or [tab]
guest
You may want to rate the tab now too:
select rating
Please do not post tabs as comments. Select "correction" instead!