Oops, an error
Loading. Please wait.

When Youre Gone Bass Tab

version 1
version 1

Whole song

Interactive

4,034 views 6 this week
no commentswrite comment
1 2 3 4 5
excellent!
x 1
add to favorites
launch autoscroll
font size
0
reset
guitar tuner
Tab Pro tools
  • play this tab
  • loop segment
  • change instrument
  • show fretboard
  • metronome
Autoscroll
slow
fast
+/-
esc
set tempo
stop
Contributor
+++++++++++++++++++++++++++++++++++++
| The Cranberries- When You're Gone |
+++++++++++++++++++++++++++++++++++++


"But Ill miss you when you're gone..."


Tuning: EADG



Intro
1.
G|-------------------|
D|-8-10-8----10-8----|
A|--------10------10-|
E|-------------------|

2.
G|---------------------------------------------------------|
D|-------------------------------------------------10-8----|
A|-6~---66~----3~---33~---------------------------------10-|
E|-------------------------3~---33~----6~---66~--6---------|

Verse
"Hold onto love..."
3.
G|-------------------------------------------------------|
D|-------------------------------------------------------|
A|-6~---66~----3~---33~----------------------------------|--x4
E|-------------------------3~---33~----6~---66~--6-8-6-3-|

Chorus
"But Ill miss you when you're gone..."
4.
G|------------------------------------------------------------------------|
D|----------5-6-8---------------------------------------------------------|
A|-6~---66~-------3~---33~--3-5-3-1---------------------------------------|--x2
E|----------------------------------3~---33~----3-4-4-4-4-4-4-4-4-4-4-4-4-|

Outro
5.
G|------------------------------------------------------------------|
D|----------5-6-8---------------------------------------------------|
A|-6~---66~-------3~---33~--3-5-3-1-----------------------------3-5-|
E|----------------------------------3~---33~----3-4~---44~--4-6-----|

Verse
"Hold on to my hands..."
6.
G|-------------------------------------------------------|
D|-------------------------------------------------------|
A|-6~---66~----3~---33~----------------------------------|--x4
E|-------------------------3~---33~----6~---66~--6-8-6-3-|

Chorus
"But Ill miss you when you're gone..."
7.
G|------------------------------------------------------------------------|
D|----------5-6-8---------------------------------------------------------|
A|-6~---66~-------3~---33~--3-5-3-1---------------------------------------|--x2
E|----------------------------------3~---33~----3-4-4-4-4-4-4-4-4-4-4-4-4-|

Outro
8.
G|------------------------------------------------------------------|
D|----------5-6-8---------------------------------------------------|
A|-6~---66~-------3~---33~--3-5-3-1-----------------------------3-5-|--Until fades out
E|----------------------------------3~---33~----3-4~---44~--4-6-----|


Please rate thanks!!



Lyrics:


Hold onto love that is what I do now that I've found you. 
And from above everything's stinking, they're not around you. 
And in the night, I could be helpless, 
I could be lonely, sleeping without you. 
And in the day, everything's complex, 
There's nothing simple, when I'm not around you. 

But I'll miss you when you're gone, that is what I do. Hey, baby! 
And it's going to carry on, that is what I do. Hey, baby... 

Hold onto my hands, I feel I'm sinking, sinking without you. 
And to my mind, everything's stinking, stinking without you. 



+++++++++++++++++++++++++++++++++
| Raileff                       |
| Underground__Dora@Hotmail.Com |
+++++++++++++++++++++++++++++++++
comments
We did not receive enough feedback on this tab! Please rate:
print report bad tab
1 2 3 4 5
I want to post or [tab]
guest
You may want to rate the tab now too:
select rating
Please do not post tabs as comments. Select "correction" instead!