Oops, an error
Loading. Please wait.

Zombie Bass Tab

version 5
119,718 views 450 this week
3 commentsread comments
1 2 3 4 5
accurate
x 14
add to favorites
launch autoscroll
font size
0
reset
guitar tuner
Tab Pro tools
  • play this tab
  • loop segment
  • change instrument
  • show fretboard
  • metronome
×
Best way to learn
"Zombie"
Autoscroll
slow
fast
+/-
esc
set tempo
stop
Contributor
Difficulty
Artist: The Cranberries
Title: Zombie

Chorus x2
|-------------------------------------------------------------------|
|-------------------------------------------------------------------|
|------------------3-3-3-3-3-3-5-3----------------------------------|
|--0-0-0-0-0-0-3-0-----------------3-3-3-3-3-3-5-3-2-2-2-2-3-2-3-2--|

Verse x5
|-------------------------------------------------------------------|
|-------------------------------------------------------------------|
|------------------3-3-3-3-3-3-3-3----------------------------------|
|--0-0-0-0-0-0-0-0-----------------3-3-3-3-3-3-3-3-2-2-2-2-3-2-3-2--|

Chorus x3
|-------------------------------------------------------------------|
|-------------------------------------------------------------------|
|------------------3-3-3-3-3-3-5-3----------------------------------|
|--0-0-0-0-0-0-3-0-----------------3-3-3-3-3-3-5-3-2-2-2-2-3-2-3-2--|

Verse x5
|-------------------------------------------------------------------|
|-------------------------------------------------------------------|
|------------------3-3-3-3-3-3-3-3----------------------------------|
|--0-0-0-0-0-0-0-0-----------------3-3-3-3-3-3-3-3-2-2-2-2-3-2-3-2--|

Chorus x3|
|-------------------------------------------------------------------|
|-------------------------------------------------------------------|
|------------------3-3-3-3-3-3-5-3----------------------------------|
|--0-0-0-0-0-0-3-0-----------------3-3-3-3-3-3-5-3-2-2-2-2-3-2-3-2--|

Solo x4
|---------------------------------|
|---------------------------------|
|------------------3-3-3-5-3------|
|--0-0-0-0-0-0-3-0-----------3-2--|

Chorus x3
|-------------------------------------------------------------------|
|-------------------------------------------------------------------|
|------------------3-3-3-3-3-3-5-3----------------------------------|
|--0-0-0-0-0-0-3-0-----------------3-3-3-3-3-3-5-3-2-2-2-2-3-2-3-2--|

Solo x3
|---------------------------------|
|---------------------------------|
|------------------3-3-3-5-3------|
|--0-0-0-0-0-0-3-0-----------3-2--|

Outro
|---|
|---|
|---|
|-0-|
comments
print report bad tab
3 comments total.
0 reply
JMP123 wrote on April 16 2013, 11:26 am

Perfect!

0 reply
sexymachine94 wrote on December 3 2013, 05:59 pm

Solo
|--------------------------------------|
|--------------------------------------|
|--------------------3-3-3-3-5-3-------|
|---0-0-0-0-0-0-3-0---------------5-3--|

0 reply
matpalmer wrote on July 3 2014, 07:44 am

Amazing Thank you

I want to post or [tab]
guest
You may want to rate the tab now too:
select rating
Please do not post tabs as comments. Select "correction" instead!