Oops, an error
Loading. Please wait.
637,049 views 567 this week
24 commentsread comments
1 2 3 4 5
x 221
add to favorites
×
Save as Personal and add changes to this tab that will be seen only by you. Learn more ›
×
You can save this tab as Personal to edit and correct it or add notes. All changes will be seen only by you. Learn more »
launch autoscroll
font size
0
reset
how to read this tab
guitar tuner
backing track
0:00
0:00
edit
Autoscroll
slow
fast
+/-
esc
set tempo
stop
Author
Difficulty
Song: Zombie
Artist: The Cranberries
Tabbed by: miguelfernandogp@hotmail.com el piña
Date: January 10 2006

[Intro]
[Clean]
  Cmaj7 G D
e|-0-----0-----3-----2-|
B|-0-----0-----0-----3-|
G|-0-----0-----0-----2-|
D|-2-----2-----0-----0-|
A|-2-----3-----2-----0-|
E|-0-----------3-----2-|
D can be played x00232 as well.

[Chorus]
e|------------------------------------------------------------------|
B|------------------------------------------------------------------|
G|------------------------------------------------------------------|
D|--2-2-2-2-2-2-2-2-2-2-2-2-2-2-2-2---------------------------------|
A|--2-2-2-2-2-2-2-2-3-3-3-3-3-3-3-3-2-2-2-2-2-2-2-2-0-0-0-0-0-0-0-0-|
E|----------------------------------3-3-3-3-3-3-3-3-2-2-2-2-2-2-2-2-|x2
The last time play the e (x22xxx) and hold out at the end.

[Verse]
[The verse starts with a mini-solo]
e|--7h8--5h7--3h5--2h3p2-------|
B|-----------------------3-3-0-|
G|-----------------------------|
D|-----------------------------|
A|-----------------------------|
E|-----------------------------|

[Chorus]
e|------------------------------------------------------------------|
B|------------------------------------------------------------------|
G|------------------------------------------------------------------|
D|--2-2-2-2-2-2-2-2-2-2-2-2-2-2-2-2---------------------------------|
A|--2-2-2-2-2-2-2-2-3-3-3-3-3-3-3-3-2-2-2-2-2-2-2-2-0-0-0-0-0-0-0-0-|
E|----------------------------------3-3-3-3-3-3-3-3-2-2-2-2-2-2-2-2-|x3
The last time play the e (x22xxx) and hold out at the end.

[Verse]
[The verse starts with a mini-solo]
e|--7h8--5h7--3h5--2h3p2-------|
B|-----------------------3-3-0-|
G|-----------------------------|
D|-----------------------------|
A|-----------------------------|
E|-----------------------------|

[Chorus]
e|------------------------------------------------------------------|
B|------------------------------------------------------------------|
G|------------------------------------------------------------------|
D|--2-2-2-2-2-2-2-2-2-2-2-2-2-2-2-2---------------------------------|
A|--2-2-2-2-2-2-2-2-3-3-3-3-3-3-3-3-2-2-2-2-2-2-2-2-0-0-0-0-0-0-0-0-|
E|----------------------------------3-3-3-3-3-3-3-3-2-2-2-2-2-2-2-2-|x4
The last time play the e (x22xxx) and hold out at the end.

[Solo]
e|--7h8--5-7--7-7-7-7h8--5-7--7-7-7-7h8--5-7--7-7-7-7h8--5-7--|
B|------------------------------------------------------------|
G|------------------------------------------------------------|
D|------------------------------------------------------------|
A|------------------------------------------------------------|
E|------------------------------------------------------------|

[Chorus-chords from here]
e|--2-2-2-2h3--0-2--2-2-2-2h3--0-2--2-2-2-2h3--0-2--2-0--0-2--|
B|------------------------------------------------------------|
G|------------------------------------------------------------|
D|------------------------------------------------------------|
A|------------------------------------------------------------|
E|------------------------------------------------------------|

e|--5--5--5-7--7-5-5-5-7--7-5-5-3-2-2--2-0-0--|
B|--------------------------------------------|
G|--------------------------------------------|
D|--------------------------------------------|
A|--------------------------------------------|
E|--------------------------------------------|

e|--2-2-2-3--0-2--2-2-2-3--0-2--2-2-2-3--0-2--2-0--0--|
B|----------------------------------------------------|
G|----------------------------------------------------|
D|----------------------------------------------------|
A|----------------------------------------------------|
E|----------------------------------------------------|

[STUFF]
[If you want it to sound like with a bass, then play this]
[Distorted]
e|------------------------------------------------------------------|
B|------------------------------------------------------------------|
G|------------------------------------------------------------------|
D|--2-2-2-2-2-2-2-2-2-2-2-2-2-2-2-2---------------------------------|
A|--2-2-2-2-2-2-2-2-3-3-3-3-3-3-5-3-2-2-2-2-2-2-2-2-0-0-0-0-0-0-0-0-|
E|--0-0-0-0-0-0-3-0-----------------3-3-3-3-3-3-5-3-2-2-2-2-2-2-3-2-|
The last time play x22xxx at the end.

[Play this insted of the Chorus.]
[Bass line during chorus]
e|-----------------------------------------------------------------|
B|-----------------------------------------------------------------|
G|-----------------------------------------------------------------|
D|-----------------------------------------------------------------|
A|-----------------3-3-3-3-3-3-5-3---------------------------------|
E|-0-0-0-0-0-0-3-0-----------------3-3-3-3-3-3-5-3-2-2-2-2-2-2-3-2-|

************************************

| h  Hammer-on
| p  Pull-off

************************************

            
            
Suggest correction
Creating personal tab
Creating personal tab
You can edit any tab online and save it as your Personal.

You can edit, replace or remove any tab part or add personal notes – all changes will be seen only by you.

Personal tabs can be accessed anytime from any device, even offline.
Learn more »
comments
print report bad tab
24 comments total. Showing first comments.
+17 reply
Slash99 91 Mar 04, 2006 04:17 AM

e|
b|
g|9-9-9-9-9-9-9-9--5-5-5-5-5-5-5-5--0-0-0-0-0-0-0-0--0-0-0-0-0-0-0-0
d|9-9-9-9-9-9-9-9--5-5-5-5-5-5-5-5--0-0-0-0-0-0-0-0--0-0-0-0-0-0-0-0
a|7-7-7-7-7-7-7-7--3-3-3-3-3-3-3-3--2-2-2-2-2-2-2-2--0-0-0-0-0-0-0-0
e|0-0-0-0-0-0-0-0-------------------3-3-3-3-3-3-3-3--2-2-2-2-2-2-2-2

This is the distorted part and the chorus trust me ive seen them live

-1 reply
Wrynn.CZ 41 Aug 03, 2007 05:22 AM

Slash99: i thing that its ok, but not on accoustic :D

0 reply
_Corey_ 10 Feb 03, 2008 05:22 AM

=p Great Tab no big mistakes made
Damn this tab's so easy and yet so
goddamn hard to find

guest
You may want to rate the tab now too:
select rating
Wanna post a correction for this tab? Suggest correction