Oops, an error
Loading. Please wait.

Zombie Tab

22,160 views 3 this week
no commentswrite comment
1 2 3 4 5
not so good
x 4
add to favorites
launch autoscroll
font size
0
reset
how to read this tab
guitar tuner
Tab Pro tools
  • play this tab
  • loop segment
  • change instrument
  • show fretboard
  • metronome
Autoscroll
slow
fast
+/-
esc
set tempo
stop
Contributor
Difficulty
novice
this song is sooo frickin awesome, i hope u like these tabs, they sound alot better than 
others ai, anyway here u go. this is my second tab, so if u dont like it, get over it, 
me if uve got any comments or anythin. roguesk8er@hotmail.com


gtr 2
(strummed intro)
{--0-------------0-------------3-------------3----------------------------|
{--0-------------1-------------3-------------3----------------------------|
{--0-------------0-------------0-------------2----------------------------|
{--2-------------2-------------0-------------0----------------------------|
{------------------------------2-------------0----------------------------|
{-------------------------------------------------------------------------|
{
{gtr 1
(distortion)
{-------------------------------------------------------------------------|
{-------------------------------------------------------------------------|
{---------------------------------------------------------2-2-2-----------|
{---------------------------------------------------------0-0-0-----------|
{---------------------------------------------------------0-0-0-----------|
{---------------------------------------------------------2-2-2-----------|

gtr 1
---------------------------------------------------------------------------|
---------------------------------------------------------------------------|
--0------------0------------0-----------2----------------------------------|
--2------------2------------0-----------0----------------------------------|x2
--2------------3------------2-----------0----------------------------------|
--0------------0------------3-----------2----------------------------------|

gtr 2 (only during second time on gtr 1's intro)
--------------------------------------------------------------------------|
------0-----0-------0-----------------------------------------------------|
---------0------------0---------------0-----------0-----------------------|
---2------------2------------------5-----5-----5--------------------------|
--------------------------------3-----------3-----------------------------|
--------------------------------------------------------------------------|

--------------------------------------------0---------------------0-0-----|
-----------------------------------------------3------------------0-0-----|
--------------------------------------------------0---------------0-0-----|
--------0-----------0-----------0--------------------0------------0-0-----|
-----2-----2-----2-----2-----2-----2--------------------0----0------------|
--3-----------3-----------3--------------------------------2--------------|

gtr1 [(palm muted)this is played throughout all the verses, and the chorus only its not 
muted, but while playing the chorus play the G string aswell]
--------------------------------------------------------------------------|
--------------------------------------------------------------------------|
--------------------------------------------------------------------------|
--2--------------2--------------0--------------0--------------------------|
--2-2-2-2-2-2-2--3-3-3-3-3-3-3--2-2-2-2-2-2-2--0-0-0-0-0-0-0--------------|
--0-0-0-0-0-0-0--0-0-0-0-0-0-0--3-3-3-3-3-3-3--2-2-2-2-2-2-2--------------|

gtr2
--------------------------------7h8-5h7-3h5----2h3p2----------------------|
-----------------------------------------------------3---3----------------|
-----------------------------------------------------------4--------------|
--------------------------------------------------------------------------|
--------------------------------------------------------------------------|
--------------------------------------------------------------------------|

bass (played before and after solo)
----------------------------------------| play for as long as needed
----------------------------------------|
----------------------------------------|
--0-0-0-0-0-0-0-8-8-8-8-10-8-5-3--------|

(solo)
--7h8--5h7---7h8---5h7-7-7-7-7h8--5h7--7-7h8-5h7--------------------------|
--------------------------------------------------------------------------|
--------------------------------------------------------------------------|
--------------------------------------------------------------------------|
--------------------------------------------------------------------------|
--------------------------------------------------------------------------|

---2h3--0h2--2h3-2-2-2h3-0h2-2h3--0h2-2p0-----10h12-12/10-10--10-10h12----|
---0----0----0---0-0-0---0---0----0---0---3---0---------------0--0--------|
--------------------------------------------------------------------------|
--------------------------------------------------------------------------|
--------------------------------------------------------------------------|
--------------------------------------------------------------------------|

--12/10-10-10-2-2-2p0-0-2h3-3-0h2-2-2h3-0h2-2-2h3-3-0h2-2-2-2p0-----------|
--------0--0--0-0-0---0-0---0-0---0-0---0---0-0---0-0---0-0-0---3---------|
--------------------------------------------------------------------------|
--------------------------------------------------------------------------|
--------------------------------------------------------------------------|
--------------------------------------------------------------------------|
comments
print report bad tab
I want to post or [tab]
guest
You may want to rate the tab now too:
select rating
Please do not post tabs as comments. Select "correction" instead!