Oops, an error
Loading. Please wait.

Zombie Tab

4,861 views 9 this week
no commentswrite comment
1 2 3 4 5
please rate
add to favorites
launch autoscroll
font size
0
reset
how to read this tab
guitar tuner
Tab Pro tools
  • play this tab
  • loop segment
  • change instrument
  • show fretboard
  • metronome
×
Best way to learn
"Zombie"
Autoscroll
slow
fast
+/-
esc
set tempo
stop
Contributor
#----------------------------------PLEASE NOTE--------------------------------#
#This file is the author's own work and represents their interpretation of the#
#song. You may only use this file for private study, scholarship, or research.#
#-----------------------------------------------------------------------------#
#-- File created with Instab - http://www.pconline.com/~smcarey/instab.html --#
#-----------------------------------------------------------------------------#

Author/Artist: Cranberries
Title: Zombie

h hammer on
p pull off
/ slide up
\ slide down

Strum between 1st and 2nd pickup.


Palm mute top four strings.
Tuning (eb A D G B E)



----|-------------|---------------|--|
----|-0--1--3--3--|---------------|--|
----|-0--0--0--2--|---------------|--|
----|-2--2--0--0--|---------------|--|
----|-------------|-2---3---5--5--|--|
----|-------------|-1---4---4--3--|--|
  

  Intro            Chorus      

                                  

----|-0-------0-------0-------0-------0-------0-------0-------0---0----0---|
----|---0---0---0---0---1---1---1---1---0---0---0---0---3---3---3---3--0---|
----|-----0-------0-------0-------0-------0-------0-------0------------0---|
----|----------------------------------------------------------------------|
----|----------------------------------------------------------------------|
----|----------------------------------------------------------------------|
                                                                       A
 
 

                
----|-7h8--5h7--3h5--2h3p2------------|
----|----------------------3--3-------|
----|----------------------------4----|
----|---------------------------------|
----|---------------------------------|
----|---------------------------------|
   

   Fill      
                                                     




----|-0----0--------|
----|-0------3------|
----|-0--0-----0--0-|
----|---------------|
----|---------------|
----|---------------|
      A                                                                       

  Verse



                  
comments
We did not receive enough feedback on this tab! Please rate:
print report bad tab
1 2 3 4 5
I want to post or [tab]
guest
You may want to rate the tab now too:
select rating
Please do not post tabs as comments. Select "correction" instead!