Oops, an error
Loading. Please wait.

The Devils Son tab

1,097 views 15 this week
no commentswrite comment
1 2 3 4 5
2 more votes to show rating
add to favorites
×
Save as Personal and add changes to this tab that will be seen only by you. Learn more ›
×
You can save this tab as Personal to edit and correct it or add notes. All changes will be seen only by you. Learn more »
launch autoscroll
font size
0
reset
how to read this tab
guitar tuner
edit
Autoscroll
slow
fast
+/-
esc
set tempo
stop
Author
Difficulty
-------------------------------------------------------------------------------
                        THE DEVIL'S SON - The Creepshow
-------------------------------------------------------------------------------
Tabbed by: Nate Laff

Tuning: Standard

Intro
=====

   Bm
e|-7-7-7-7-7-7-7-7-7-7-7-7-|
B|-7-7-7-7-7-7-7-7-7-7-7-7-|
G|-7-7-7-7-7-7-7-7-7-7-7-7-|
D|-------------------------|
A|-------------------------|
E|-------------------------|

   Bm                        F#                        Bm                        F#
e|------------7------------|-------------------------|------------7------------|-------------------------|
B|-------------------------|------------7~-----------|-------------------------|-------------------------|
G|------7---------10--9--7-|------------9~-----------|------7---------10--9--7-|------------9-/-11-------|
D|-/-9-----9---------------|------8-----8~-----------|-/-9-----9---------------|------8------------------|
A|-------------------------|-/-9-----9--9~-----------|-------------------------|-/-9-----9---------------|
E|-------------------------|-------------------------|-------------------------|-------------------------|
                                        v

   Bm                        F#                        Bm                        F#              A      
e|------------7------------|-------------------------|-7----7~-----------------|-------------------------|
B|-------------------------|------------7~-----------|-7----7~-----------------|-2-2-2-2-2-2-2---5-------|
G|------7---------10--9--7-|------------9~-----------|-7----7~-----------------|-3-3-3-3-3-3-3---6-------|
D|-/-9-----9---------------|------8-----8~-----------|-------------------------|-4-4-4-4-4-4-4---7-------|
A|-------------------------|-/-9-----9--9~-----------|-------------------------|-4-4-4-4-4-4-4---7-------|
E|-------------------------|-------------------------|-------------------------|-------------------------|
                                        v

Verse I
=======

Bm
   I was sleeping, late at night, when I heard a sound that gave me an awful fright.

  Bm                                               Bm                         F#
I looked out to my window to clear my sight. There sat the Devil's son in the pale moonlight.

              Bm                  F#                 
And he said, "Hey baby, would you let me in?" 

       Bm                             F#          Bm                         F#
You're looking awfully good; it would be a sin if you were to be laying here alone tonight.

     Bm                          F#
Just let the heat in baby. Don't try to fight.


Chorus I
========

G          D                 A                    Bm
He hit the nail right on the head. I was cold and lonely inside my bed. 

G       D                  F#
I never thought I'd be the one to fall in love with the Devil's son.


Interlude
=========

   Bm                        F#                        Bm                        F#
e|------------7------------|-------------------------|------------7------------|-------------------------|
B|-------------------------|------------7~-----------|-------------------------|-------------------------|
G|------7---------10--9--7-|------------9~-----------|------7---------10--9--7-|------------9-/-11-------|
D|-/-9-----9---------------|------8-----8~-----------|-/-9-----9---------------|------8------------------|
A|-------------------------|-/-9-----9--9~-----------|-------------------------|-/-9-----9---------------|
E|-------------------------|-------------------------|-------------------------|-------------------------|
                                        v

   Bm                        F#                        Bm                        F#              A      
e|------------7------------|-------------------------|-7----7~-----------------|-------------------------|
B|-------------------------|------------7~-----------|-7----7~-----------------|-2-2-2-2-2-2-2---5-------|
G|------7---------10--9--7-|------------9~-----------|-7----7~-----------------|-3-3-3-3-3-3-3---6-------|
D|-/-9-----9---------------|------8-----8~-----------|-------------------------|-4-4-4-4-4-4-4---7-------|
A|-------------------------|-/-9-----9--9~-----------|-------------------------|-4-4-4-4-4-4-4---7-------|
E|-------------------------|-------------------------|-------------------------|-------------------------|


Verse II
========

Bm 
   He held me in his arms and I fell in love with his devilish charm. 
          
  Bm                                    Bm                    F#
I didn't know it could end like this. I fell in love with the Devil's kiss.

Bm                    F#                   
We're still together, me and you know who, 

Bm                     F#                Bm                F#
I didn't know what the Devil could do, I should have never let him in.

    Bm                 F#
Now I'm living life in eternal sin.


Chorus II
=========

G          D                 A                    Bm
He hit the nail right on the head. I was cold and lonely inside my bed. 

G       D                  F#                                   G
I never thought I'd be the one to fall in love with the Devil's son.


Keyboard Solo
=============

G   D   A   Bm  A
G   D   F#


Guitar Solo
===========

   G                                    D
e|--10--10--12--10--10--10---------10-|-10---10---10-----10--------------10-|
B|--10--10--10--10--12--10---------10-|-12---10---12-----10--------------10-|
G|--------------------------10h11-----|-------------------------------------|
A|------------------------------------|-------------------------------------|
E|------------------------------------|-------------------------------------|

   A                                    Bm                        A
e|-12p10-10-14p10-10-15p10-10-14p10-10|-------------------------------------|
B|------------------------------------|--12b14----12--10--12b---------------|
G|------------------------------------|-------------------------------------|
D|------------------------------------|-------------------------------------|
A|------------------------------------|-------------------------------------|
E|------------------------------------|-------------------------------------|

   G                                    D
e|------------------------------------|------------------------------------|
B|------------------------------------|------------------------------------|
G|------7---9--/--11--\--9---7--------|------7--9--7--9--/--10--\--9---7---|
D|-/-9--------------------------9-----|-/-9--------------------------------|
A|------------------------------------|------------------------------------|
E|------------------------------------|------------------------------------|

   F#
e|------------------------------------|---------------------7------7--9--7--9--10-|
B|----------------------------7-----7-|-8--7--8--10--8--10-----10-----------------|
G|----------7-----7--9--7--9-----9----|-------------------------------------------|
D|----7--9-----9----------------------|-------------------------------------------|
A|-9----------------------------------|-------------------------------------------|
E|------------------------------------|-------------------------------------------|
   P.M. - - - - - - - - - - - - - - - - - - - - - - - - - - - - - - - - - - - |


Chorus III
==========

He hit the nail right on the head. I was cold and lonely inside my bed. 
                           
                           F#                                   
I never thought I'd be the one

G          D                 A                    Bm            A
He hit the nail right on the head. I was cold and lonely inside my bed. 

G       D                  F#
I never thought I'd be the one to fall in love with the Devil's son.


Outro
=====

   Bm                        F#                        Bm                        F#
e|------------7------------|-------------------------|------------7------------|-------------------------|
B|-------------------------|------------7~-----------|-------------------------|-------------------------|
G|------7---------10--9--7-|------------9~-----------|------7---------10--9--7-|------------9-/-11-------|
D|-/-9-----9---------------|------8-----8~-----------|-/-9-----9---------------|------8------------------|
A|-------------------------|-/-9-----9--9~-----------|-------------------------|-/-9-----9---------------|
E|-------------------------|-------------------------|-------------------------|-------------------------|
                                        v

   Bm                        F#                        Bm                        F#    
e|------------7------------|-------------------------|-7-7-7-7-7-7-7-7-7-7-7-7-|-------------------------|
B|-------------------------|------------7~-----------|-7-7-7-7-7-7-7-7-7-7-7-7-|-2-----------------------|
G|------7---------10--9--7-|------------9~-----------|-7-7-7-7-7-7-7-7-7-7-7-7-|-3-----------------------|
D|-/-9-----9---------------|------8-----8~-----------|-------------------------|-4-----------------------|
A|-------------------------|-/-9-----9--9~-----------|-------------------------|-4-----------------------|
E|-------------------------|-------------------------|-------------------------|-------------------------|
                                        v

************************************

| /   slide up
| \   slide down
| h   hammer-on
| p   pull-off
| ~   vibrato
| +   harmonic
| x   Mute note
| b   Bend
| pb  Pre-bend
| br  Bend release
| pbr Pre-bend release
| brb Bend release bend

************************************



            
            
Suggest correction
Creating personal tab
Creating personal tab
You can edit any tab online and save it as your Personal.

You can edit, replace or remove any tab part or add personal notes – all changes will be seen only by you.

Personal tabs can be accessed anytime from any device, even offline.
Learn more »
Give kudos to tab author, rate the tab!
1 2 3 4 5
comments
print report bad tab
guest
You may want to rate the tab now too:
select rating
Wanna post a correction for this tab? Suggest correction