Oops, an error
Loading. Please wait.

Anna tab

340 views 15 this week
1 commentread comment
1 2 3 4 5
1 last vote to show rating
add to favorites
×
Save as Personal and add changes to this tab that will be seen only by you. Learn more ›
×
You can save this tab as Personal to edit and correct it or add notes. All changes will be seen only by you. Learn more »
launch autoscroll
font size
0
reset
how to read this tab
guitar tuner
edit
Autoscroll
slow
fast
+/-
esc
set tempo
stop
Author
-------------------------------------------------------------------------------
                             ANNA - THE CRIBS
-------------------------------------------------------------------------------
Tabbed by: bquege
E-mail: bquege

Tuning: Standard

INTRO

E|--------3-------------8--7------
B|-----3-----3-------7--------7--
G|--4-----------4/8--------------
D|-------------------------------
A|-------------------------------
E|-------------------------------

VERSE:

E|-----------3-----------3-----------8----
B|-----3-----------3-----------8----------
G|--4-----4-----4-----4-----9-----9-----9\
D|----------------------------------------
A|----------------------------------------
E|----------------------------------------


E|-----------3-----------3--------8--------------7--------
B|-----3-----------3-----------8-----8--------7-----7-----
G|--4-----4-----4-----4-----9-----------9--8-----------8--
D|--------------------------------------------------------
A|--------------------------------------------------------
E|--------------------------------------------------------


E|-----3-----7-----3-----7-----3-----7-----7--8-----
B|--5-----5-----5-----5-----5-----5-----5--------7--
G|--------------------------------------------------
D|--------------------------------------------------
A|--------------------------------------------------
E|--------------------------------------------------


E|-------5-----------5-----------5-----------5--------------
B|--7/8-----8-----8-----8-----8-----8-----8-----8--8--8--7--
G|-------------7-----------7-----------7--------------------
D|----------------------------------------------------------
A|----------------------------------------------------------
E|----------------------------------------------------------


E|-----3-----7-----3-----7-----3-----7-----7--8-----
B|--5-----5-----5-----5-----5-----5-----5--------7--
G|--------------------------------------------------
D|--------------------------------------------------
A|--------------------------------------------------
E|--------------------------------------------------



PRE-CHORUS:

E|------------
B|------------
G|--12--4--7--
D|------------
A|--10--2--5--
E|------------

Listen for the right rhythm.



CHORUS:

E|--------------------------------7-----7--7--8--2--
B|--------3--5-----------------8-----8--------------
G|-----4--------4-----------9-----------------------
D|--5--------------5--7--5--------------------------
A|--------------------------------------------------
E|--------------------------------------------------
note: to get the right tone, you should use pretty heavy distortion mixed with a chorus pedal. I personally
run a Big Muff + Small Clone and it sounds awesome.



BRIDGE:

This part is really hard to figure out by ear. There's more then just one guitar, but I'm almost sure
this is what Ryan plays live. I recommend you go check out their acoustic sessions to get the right timing, 
because it's really hard to tab out the rhythm: https://www.youtube.com/watch?v=styHhexnx0Y
The main problem with those is that their guitars are tuned one step down and they play two frets below
what they usually do (i.e. this session is actually 2 whole steps below the album version). So don't worry
if you're playing these tabs along with it and it sounds like shit! Just focus on the timing and feel of
the parts and then play this along with the album.

E|------------------------------------------
B|------------------------------------------
G|--12--9--11--12--16--17--9--8--9--16--14--
D|------------------------------------------
A|--10--7--9---10--14--15--7--6--7--14--12--
E|------------------------------------------


E|-----------------------------------------
B|-----------------------------------------
G|--7--9--11--12--16--17--9--9--9--16--14--
D|-----------------------------------------
A|--5--7--9---10--14--15--7--6--7--14--12--
E|-----------------------------------------

************************************

| /   slide up
| \   slide down
| h   hammer-on
| p   pull-off
| ~   vibrato
| +   harmonic
| x   Mute note
| b   Bend
| pb  Pre-bend
| br  Bend release
| pbr Pre-bend release
| brb Bend release bend

************************************
Suggest correction
Creating personal tab
Creating personal tab
You can edit any tab online and save it as your Personal.

You can edit, replace or remove any tab part or add personal notes – all changes will be seen only by you.

Personal tabs can be accessed anytime from any device, even offline.
Learn more »
Give kudos to tab author, rate the tab!
1 2 3 4 5
comments
print report bad tab
1 comment total.
0 reply
nickaldous45 46 Jan 02, 2016 03:59 PM

This is perfect! Please could you do a jaded youth tab? Been dying to play it and cant figure it out!

guest
You may want to rate the tab now too:
select rating
Wanna post a correction for this tab? Suggest correction