Oops, an error
Loading. Please wait.

Another Number Tab

18,673 views 21 this week
7 commentsread comments
1 2 3 4 5
excellent!
x 16
add to favorites
launch autoscroll
font size
0
reset
how to read this tab
guitar tuner
Autoscroll
slow
fast
+/-
esc
set tempo
stop
Help us to improve Ultimate-Guitar.com Take our survey!
×
Author
Main/verse riff

e-18---18--------------------18--|
b-19-------19-----------18-------|
g-18-----------18---18-----------|
d--------------------------------|
a--------------------------------|
e--------------------------------|

pre-chorus
e--18----18----18----------|
b--19----19----19----------|
g--18----18----18----------|
d--------------------------|
a--------------------------|
e--------------------------|

Chorus - "ohooooh oooooooh ooohh"
e---18-18-18-18-18-18-18----18-18-18-18-18-18-18-18-18-|
b---19-19-19-19-19-19-19----18-18-18-18-18-18-18-18-18-|
g---18-18-18-18-18-18-18----18-18-18-18-18-18-18-18-18-|
d------------------------------------------------------|
a------------------------------------------------------|
e------------------------------------------------------|

Then back to main/verse riff

Variation of main/verse riff - only played once I think

e-18---18--------------------18--18h19p18|
b-19-------19-----------18---------------|
g-18-----------18---18-------------------|
d----------------------------------------|
a----------------------------------------|
e----------------------------------------|

bridge..... "I disappear for hours" is simply this chord repeated
e-6-----------|
b-7-----------|
g-6-----------|
d-8-----------|
a-6-----------|
e-6-----------|


'ba da, ba da, ba ba ba, ba da da.....'

e---6-6-6-6-6-6-6-6-6-6-6---6-4-4-4-6---6-4-4-4-6---2--|
b---7-7-7-7-7-7-7-7-7-7-7---6-6-6-6-6---6-6-6-6-6---2--|
g------------------------------------------------------|
d------------------------------------------------------|
a------------------------------------------------------|
e------------------------------------------------------|

Check out my Cribs guitar tab blog at http://thecribsguitartabs.blogspot.co.uk/
Suggest correction
comments
print report bad tab
7 comments total. Showing first comments.
0 reply
thend 10 wrote on April 30 2005, 12:00 am

Woo, it's great to see Cribs tabs up, keep up the good work, and put up some others, I would try, but I am not that good yet.

0 reply
TJ1991 1,799 wrote on March 27 2006, 02:26 pm

great tab!

did the kaisers cover this song or did they do it originally? its an ongoing debate between me and my mate, but we still dont know the answer...

0 reply
omgelliot 155 wrote on April 10 2006, 06:25 am

cribs original. and nice tab stu.

guest
You may want to rate the tab now too:
select rating
Wanna post a correction for this tab? Suggest correction